ISO-10303-21;
HEADER;
/* Generated by software containing ST-Developer
 * from STEP Tools, Inc. (www.steptools.com) 
 */

FILE_DESCRIPTION(
/* description */ (''),
/* implementation_level */ '2;1');

FILE_NAME(
/* name */ 
'\\\\MOPKFS001\\UserHome$\\as\\Dokumente as\\Virtueller Desktop\\3D CA
D WEB Test\\Dateien f\X\FCr WEB\\3D_500-0355-XX.stp',
/* time_stamp */ '2022-03-17T11:15:00+01:00',
/* author */ ('as'),
/* organization */ (''),
/* preprocessor_version */ 'ST-DEVELOPER v18.1',
/* originating_system */ 'Autodesk Inventor 2021',
/* authorisation */ '');

FILE_SCHEMA (('CONFIG_CONTROL_DESIGN'));
ENDSEC;

DATA;
#10=MECHANICAL_DESIGN_GEOMETRIC_PRESENTATION_REPRESENTATION('',(#35,#36),
#376);
#11=CONTEXT_DEPENDENT_OVER_RIDING_STYLED_ITEM('',(#403),#390,#36,(#24));
#12=CONTEXT_DEPENDENT_OVER_RIDING_STYLED_ITEM('',(#403),#390,#36,(#23));
#13=CONTEXT_DEPENDENT_OVER_RIDING_STYLED_ITEM('',(#403),#390,#36,(#21));
#14=CONTEXT_DEPENDENT_OVER_RIDING_STYLED_ITEM('',(#403),#390,#36,(#22));
#15=MAPPED_ITEM('',#16,#255);
#16=REPRESENTATION_MAP(#255,#389);
#17=ITEM_DEFINED_TRANSFORMATION($,$,#240,#251);
#18=ITEM_DEFINED_TRANSFORMATION($,$,#240,#252);
#19=ITEM_DEFINED_TRANSFORMATION($,$,#240,#253);
#20=ITEM_DEFINED_TRANSFORMATION($,$,#240,#254);
#21=(
REPRESENTATION_RELATIONSHIP($,$,#390,#389)
REPRESENTATION_RELATIONSHIP_WITH_TRANSFORMATION(#17)
SHAPE_REPRESENTATION_RELATIONSHIP()
);
#22=(
REPRESENTATION_RELATIONSHIP($,$,#390,#389)
REPRESENTATION_RELATIONSHIP_WITH_TRANSFORMATION(#18)
SHAPE_REPRESENTATION_RELATIONSHIP()
);
#23=(
REPRESENTATION_RELATIONSHIP($,$,#390,#389)
REPRESENTATION_RELATIONSHIP_WITH_TRANSFORMATION(#19)
SHAPE_REPRESENTATION_RELATIONSHIP()
);
#24=(
REPRESENTATION_RELATIONSHIP($,$,#390,#389)
REPRESENTATION_RELATIONSHIP_WITH_TRANSFORMATION(#20)
SHAPE_REPRESENTATION_RELATIONSHIP()
);
#25=CONTEXT_DEPENDENT_SHAPE_REPRESENTATION(#21,#385);
#26=CONTEXT_DEPENDENT_SHAPE_REPRESENTATION(#22,#386);
#27=CONTEXT_DEPENDENT_SHAPE_REPRESENTATION(#23,#387);
#28=CONTEXT_DEPENDENT_SHAPE_REPRESENTATION(#24,#388);
#29=NEXT_ASSEMBLY_USAGE_OCCURRENCE(
'Holz Einlage H87 Pegasus 900 093490:1',
'Holz Einlage H87 Pegasus 900 093490:1',
'Holz Einlage H87 Pegasus 900 093490:1',#392,#393,
'Holz Einlage H87 Pegasus 900 093490:1');
#30=NEXT_ASSEMBLY_USAGE_OCCURRENCE(
'Holz Einlage H87 Pegasus 900 093490:2',
'Holz Einlage H87 Pegasus 900 093490:2',
'Holz Einlage H87 Pegasus 900 093490:2',#392,#393,
'Holz Einlage H87 Pegasus 900 093490:2');
#31=NEXT_ASSEMBLY_USAGE_OCCURRENCE(
'Holz Einlage H87 Pegasus 900 093490:3',
'Holz Einlage H87 Pegasus 900 093490:3',
'Holz Einlage H87 Pegasus 900 093490:3',#392,#393,
'Holz Einlage H87 Pegasus 900 093490:3');
#32=NEXT_ASSEMBLY_USAGE_OCCURRENCE(
'Holz Einlage H87 Pegasus 900 093490:4',
'Holz Einlage H87 Pegasus 900 093490:4',
'Holz Einlage H87 Pegasus 900 093490:4',#392,#393,
'Holz Einlage H87 Pegasus 900 093490:4');
#33=SHAPE_REPRESENTATION_RELATIONSHIP('SRR','None',#390,#34);
#34=ADVANCED_BREP_SHAPE_REPRESENTATION('',(#37),#375);
#35=STYLED_ITEM('',(#404),#37);
#36=STYLED_ITEM('',(#405),#15);
#37=MANIFOLD_SOLID_BREP('Volumenk\X\F6rper1',#214);
#38=FACE_OUTER_BOUND('',#48,.T.);
#39=FACE_OUTER_BOUND('',#49,.T.);
#40=FACE_OUTER_BOUND('',#50,.T.);
#41=FACE_OUTER_BOUND('',#51,.T.);
#42=FACE_OUTER_BOUND('',#52,.T.);
#43=FACE_OUTER_BOUND('',#53,.T.);
#44=FACE_OUTER_BOUND('',#54,.T.);
#45=FACE_OUTER_BOUND('',#55,.T.);
#46=FACE_OUTER_BOUND('',#56,.T.);
#47=FACE_OUTER_BOUND('',#57,.T.);
#48=EDGE_LOOP('',(#146,#147,#148,#149));
#49=EDGE_LOOP('',(#150,#151,#152,#153,#154,#155,#156,#157));
#50=EDGE_LOOP('',(#158,#159,#160,#161));
#51=EDGE_LOOP('',(#162,#163,#164,#165));
#52=EDGE_LOOP('',(#166,#167,#168,#169));
#53=EDGE_LOOP('',(#170,#171,#172,#173));
#54=EDGE_LOOP('',(#174,#175,#176,#177));
#55=EDGE_LOOP('',(#178,#179,#180,#181));
#56=EDGE_LOOP('',(#182,#183,#184,#185));
#57=EDGE_LOOP('',(#186,#187,#188,#189,#190,#191,#192,#193));
#58=LINE('',#319,#82);
#59=LINE('',#321,#83);
#60=LINE('',#323,#84);
#61=LINE('',#324,#85);
#62=LINE('',#327,#86);
#63=LINE('',#329,#87);
#64=LINE('',#331,#88);
#65=LINE('',#333,#89);
#66=LINE('',#335,#90);
#67=LINE('',#337,#91);
#68=LINE('',#338,#92);
#69=LINE('',#341,#93);
#70=LINE('',#342,#94);
#71=LINE('',#345,#95);
#72=LINE('',#346,#96);
#73=LINE('',#350,#97);
#74=LINE('',#351,#98);
#75=LINE('',#352,#99);
#76=LINE('',#355,#100);
#77=LINE('',#356,#101);
#78=LINE('',#359,#102);
#79=LINE('',#360,#103);
#80=LINE('',#362,#104);
#81=LINE('',#364,#105);
#82=VECTOR('',#262,10.);
#83=VECTOR('',#263,10.);
#84=VECTOR('',#264,10.);
#85=VECTOR('',#265,10.);
#86=VECTOR('',#268,10.);
#87=VECTOR('',#269,10.);
#88=VECTOR('',#270,10.);
#89=VECTOR('',#271,10.);
#90=VECTOR('',#272,10.);
#91=VECTOR('',#273,10.);
#92=VECTOR('',#274,10.);
#93=VECTOR('',#277,10.);
#94=VECTOR('',#278,10.);
#95=VECTOR('',#281,10.);
#96=VECTOR('',#282,10.);
#97=VECTOR('',#285,10.);
#98=VECTOR('',#286,10.);
#99=VECTOR('',#287,10.);
#100=VECTOR('',#290,10.);
#101=VECTOR('',#291,10.);
#102=VECTOR('',#294,10.);
#103=VECTOR('',#295,10.);
#104=VECTOR('',#298,10.);
#105=VECTOR('',#301,10.);
#106=VERTEX_POINT('',#317);
#107=VERTEX_POINT('',#318);
#108=VERTEX_POINT('',#320);
#109=VERTEX_POINT('',#322);
#110=VERTEX_POINT('',#326);
#111=VERTEX_POINT('',#328);
#112=VERTEX_POINT('',#330);
#113=VERTEX_POINT('',#332);
#114=VERTEX_POINT('',#334);
#115=VERTEX_POINT('',#336);
#116=VERTEX_POINT('',#340);
#117=VERTEX_POINT('',#344);
#118=VERTEX_POINT('',#348);
#119=VERTEX_POINT('',#349);
#120=VERTEX_POINT('',#354);
#121=VERTEX_POINT('',#358);
#122=EDGE_CURVE('',#106,#107,#58,.T.);
#123=EDGE_CURVE('',#107,#108,#59,.T.);
#124=EDGE_CURVE('',#108,#109,#60,.T.);
#125=EDGE_CURVE('',#109,#106,#61,.T.);
#126=EDGE_CURVE('',#106,#110,#62,.T.);
#127=EDGE_CURVE('',#111,#110,#63,.T.);
#128=EDGE_CURVE('',#111,#112,#64,.T.);
#129=EDGE_CURVE('',#113,#112,#65,.T.);
#130=EDGE_CURVE('',#114,#113,#66,.T.);
#131=EDGE_CURVE('',#115,#114,#67,.T.);
#132=EDGE_CURVE('',#107,#115,#68,.T.);
#133=EDGE_CURVE('',#116,#109,#69,.T.);
#134=EDGE_CURVE('',#110,#116,#70,.T.);
#135=EDGE_CURVE('',#116,#117,#71,.T.);
#136=EDGE_CURVE('',#117,#111,#72,.T.);
#137=EDGE_CURVE('',#118,#119,#73,.T.);
#138=EDGE_CURVE('',#119,#113,#74,.T.);
#139=EDGE_CURVE('',#112,#118,#75,.T.);
#140=EDGE_CURVE('',#119,#120,#76,.T.);
#141=EDGE_CURVE('',#114,#120,#77,.T.);
#142=EDGE_CURVE('',#120,#121,#78,.T.);
#143=EDGE_CURVE('',#121,#115,#79,.T.);
#144=EDGE_CURVE('',#117,#118,#80,.T.);
#145=EDGE_CURVE('',#108,#121,#81,.T.);
#146=ORIENTED_EDGE('',*,*,#122,.T.);
#147=ORIENTED_EDGE('',*,*,#123,.T.);
#148=ORIENTED_EDGE('',*,*,#124,.T.);
#149=ORIENTED_EDGE('',*,*,#125,.T.);
#150=ORIENTED_EDGE('',*,*,#122,.F.);
#151=ORIENTED_EDGE('',*,*,#126,.T.);
#152=ORIENTED_EDGE('',*,*,#127,.F.);
#153=ORIENTED_EDGE('',*,*,#128,.T.);
#154=ORIENTED_EDGE('',*,*,#129,.F.);
#155=ORIENTED_EDGE('',*,*,#130,.F.);
#156=ORIENTED_EDGE('',*,*,#131,.F.);
#157=ORIENTED_EDGE('',*,*,#132,.F.);
#158=ORIENTED_EDGE('',*,*,#125,.F.);
#159=ORIENTED_EDGE('',*,*,#133,.F.);
#160=ORIENTED_EDGE('',*,*,#134,.F.);
#161=ORIENTED_EDGE('',*,*,#126,.F.);
#162=ORIENTED_EDGE('',*,*,#135,.T.);
#163=ORIENTED_EDGE('',*,*,#136,.T.);
#164=ORIENTED_EDGE('',*,*,#127,.T.);
#165=ORIENTED_EDGE('',*,*,#134,.T.);
#166=ORIENTED_EDGE('',*,*,#137,.T.);
#167=ORIENTED_EDGE('',*,*,#138,.T.);
#168=ORIENTED_EDGE('',*,*,#129,.T.);
#169=ORIENTED_EDGE('',*,*,#139,.T.);
#170=ORIENTED_EDGE('',*,*,#138,.F.);
#171=ORIENTED_EDGE('',*,*,#140,.T.);
#172=ORIENTED_EDGE('',*,*,#141,.F.);
#173=ORIENTED_EDGE('',*,*,#130,.T.);
#174=ORIENTED_EDGE('',*,*,#131,.T.);
#175=ORIENTED_EDGE('',*,*,#141,.T.);
#176=ORIENTED_EDGE('',*,*,#142,.T.);
#177=ORIENTED_EDGE('',*,*,#143,.T.);
#178=ORIENTED_EDGE('',*,*,#136,.F.);
#179=ORIENTED_EDGE('',*,*,#144,.T.);
#180=ORIENTED_EDGE('',*,*,#139,.F.);
#181=ORIENTED_EDGE('',*,*,#128,.F.);
#182=ORIENTED_EDGE('',*,*,#123,.F.);
#183=ORIENTED_EDGE('',*,*,#132,.T.);
#184=ORIENTED_EDGE('',*,*,#143,.F.);
#185=ORIENTED_EDGE('',*,*,#145,.F.);
#186=ORIENTED_EDGE('',*,*,#124,.F.);
#187=ORIENTED_EDGE('',*,*,#145,.T.);
#188=ORIENTED_EDGE('',*,*,#142,.F.);
#189=ORIENTED_EDGE('',*,*,#140,.F.);
#190=ORIENTED_EDGE('',*,*,#137,.F.);
#191=ORIENTED_EDGE('',*,*,#144,.F.);
#192=ORIENTED_EDGE('',*,*,#135,.F.);
#193=ORIENTED_EDGE('',*,*,#133,.T.);
#194=PLANE('',#241);
#195=PLANE('',#242);
#196=PLANE('',#243);
#197=PLANE('',#244);
#198=PLANE('',#245);
#199=PLANE('',#246);
#200=PLANE('',#247);
#201=PLANE('',#248);
#202=PLANE('',#249);
#203=PLANE('',#250);
#204=ADVANCED_FACE('',(#38),#194,.T.);
#205=ADVANCED_FACE('',(#39),#195,.T.);
#206=ADVANCED_FACE('',(#40),#196,.F.);
#207=ADVANCED_FACE('',(#41),#197,.T.);
#208=ADVANCED_FACE('',(#42),#198,.T.);
#209=ADVANCED_FACE('',(#43),#199,.T.);
#210=ADVANCED_FACE('',(#44),#200,.T.);
#211=ADVANCED_FACE('',(#45),#201,.T.);
#212=ADVANCED_FACE('',(#46),#202,.T.);
#213=ADVANCED_FACE('',(#47),#203,.T.);
#214=CLOSED_SHELL('',(#204,#205,#206,#207,#208,#209,#210,#211,#212,#213));
#215=DERIVED_UNIT_ELEMENT(#217,1.);
#216=DERIVED_UNIT_ELEMENT(#378,-3.);
#217=(
MASS_UNIT()
NAMED_UNIT(*)
SI_UNIT($,.GRAM.)
);
#218=DERIVED_UNIT((#215,#216));
#219=MEASURE_REPRESENTATION_ITEM('density measure',
POSITIVE_RATIO_MEASURE(1.06),#218);
#220=PROPERTY_DEFINITION_REPRESENTATION(#225,#222);
#221=PROPERTY_DEFINITION_REPRESENTATION(#226,#223);
#222=REPRESENTATION('material name',(#224),#375);
#223=REPRESENTATION('density',(#219),#375);
#224=DESCRIPTIVE_REPRESENTATION_ITEM('Kst - ABS','Kst - ABS');
#225=PROPERTY_DEFINITION('material property','material name',#393);
#226=PROPERTY_DEFINITION('material property','density of part',#393);
#227=DATE_TIME_ROLE('creation_date');
#228=DATE_TIME_ROLE('creation_date');
#229=CC_DESIGN_DATE_AND_TIME_ASSIGNMENT(#231,#227,(#392));
#230=CC_DESIGN_DATE_AND_TIME_ASSIGNMENT(#232,#228,(#393));
#231=DATE_AND_TIME(#233,#235);
#232=DATE_AND_TIME(#234,#236);
#233=CALENDAR_DATE(2022,1,3);
#234=CALENDAR_DATE(2015,4,9);
#235=LOCAL_TIME(0,0,0.,#237);
#236=LOCAL_TIME(0,0,0.,#238);
#237=COORDINATED_UNIVERSAL_TIME_OFFSET(0,0,.BEHIND.);
#238=COORDINATED_UNIVERSAL_TIME_OFFSET(0,0,.BEHIND.);
#239=AXIS2_PLACEMENT_3D('placement',#314,#256,#257);
#240=AXIS2_PLACEMENT_3D('placement',#315,#258,#259);
#241=AXIS2_PLACEMENT_3D('',#316,#260,#261);
#242=AXIS2_PLACEMENT_3D('',#325,#266,#267);
#243=AXIS2_PLACEMENT_3D('',#339,#275,#276);
#244=AXIS2_PLACEMENT_3D('',#343,#279,#280);
#245=AXIS2_PLACEMENT_3D('',#347,#283,#284);
#246=AXIS2_PLACEMENT_3D('',#353,#288,#289);
#247=AXIS2_PLACEMENT_3D('',#357,#292,#293);
#248=AXIS2_PLACEMENT_3D('',#361,#296,#297);
#249=AXIS2_PLACEMENT_3D('',#363,#299,#300);
#250=AXIS2_PLACEMENT_3D('',#365,#302,#303);
#251=AXIS2_PLACEMENT_3D('',#366,#304,#305);
#252=AXIS2_PLACEMENT_3D('',#367,#306,#307);
#253=AXIS2_PLACEMENT_3D('',#368,#308,#309);
#254=AXIS2_PLACEMENT_3D('',#369,#310,#311);
#255=AXIS2_PLACEMENT_3D('',#370,#312,#313);
#256=DIRECTION('axis',(0.,0.,1.));
#257=DIRECTION('refdir',(1.,0.,0.));
#258=DIRECTION('axis',(0.,0.,1.));
#259=DIRECTION('refdir',(1.,0.,0.));
#260=DIRECTION('center_axis',(0.707106781186548,1.30841038223648E-16,-0.707106781186547));
#261=DIRECTION('ref_axis',(-0.707106781186547,0.,-0.707106781186548));
#262=DIRECTION('',(0.707106781186547,0.,0.707106781186548));
#263=DIRECTION('',(1.85037170770859E-16,-1.,0.));
#264=DIRECTION('',(-0.707106781186547,0.,-0.707106781186548));
#265=DIRECTION('',(-1.85037170770859E-16,1.,0.));
#266=DIRECTION('center_axis',(0.,1.,0.));
#267=DIRECTION('ref_axis',(-1.,0.,0.));
#268=DIRECTION('',(-1.,0.,0.));
#269=DIRECTION('',(0.707106781186547,0.,-0.707106781186548));
#270=DIRECTION('',(0.,0.,1.));
#271=DIRECTION('',(-0.707106781186542,0.,-0.707106781186553));
#272=DIRECTION('',(-1.,0.,0.));
#273=DIRECTION('',(-0.707106781186542,0.,0.707106781186553));
#274=DIRECTION('',(0.,0.,1.));
#275=DIRECTION('center_axis',(0.,0.,1.));
#276=DIRECTION('ref_axis',(1.,0.,0.));
#277=DIRECTION('',(1.,0.,0.));
#278=DIRECTION('',(3.05232256057913E-16,-1.,0.));
#279=DIRECTION('center_axis',(-0.707106781186548,-2.15831798095419E-16,
-0.707106781186547));
#280=DIRECTION('ref_axis',(-0.707106781186547,0.,0.707106781186548));
#281=DIRECTION('',(-0.707106781186547,0.,0.707106781186548));
#282=DIRECTION('',(-3.05232256057913E-16,1.,0.));
#283=DIRECTION('center_axis',(-0.707106781186553,-2.15831798095421E-16,
0.707106781186542));
#284=DIRECTION('ref_axis',(0.707106781186542,0.,0.707106781186553));
#285=DIRECTION('',(0.707106781186542,0.,0.707106781186553));
#286=DIRECTION('',(-3.05232256057913E-16,1.,0.));
#287=DIRECTION('',(3.05232256057913E-16,-1.,0.));
#288=DIRECTION('center_axis',(0.,0.,1.));
#289=DIRECTION('ref_axis',(1.,0.,0.));
#290=DIRECTION('',(1.,0.,0.));
#291=DIRECTION('',(1.85037170770859E-16,-1.,0.));
#292=DIRECTION('center_axis',(0.707106781186553,1.30841038223649E-16,0.707106781186542));
#293=DIRECTION('ref_axis',(0.707106781186542,0.,-0.707106781186553));
#294=DIRECTION('',(0.707106781186542,0.,-0.707106781186553));
#295=DIRECTION('',(-1.85037170770859E-16,1.,0.));
#296=DIRECTION('center_axis',(-1.,-3.05232256057913E-16,0.));
#297=DIRECTION('ref_axis',(3.05232256057913E-16,-1.,0.));
#298=DIRECTION('',(0.,0.,1.));
#299=DIRECTION('center_axis',(1.,1.85037170770859E-16,0.));
#300=DIRECTION('ref_axis',(-1.85037170770859E-16,1.,0.));
#301=DIRECTION('',(0.,0.,1.));
#302=DIRECTION('center_axis',(0.,-1.,0.));
#303=DIRECTION('ref_axis',(1.,0.,0.));
#304=DIRECTION('',(3.2602341427371E-16,5.20404160028179E-17,1.));
#305=DIRECTION('',(-1.19204946432688E-32,-1.,5.20404160028179E-17));
#306=DIRECTION('',(1.64560042712082E-16,2.03736779348671E-16,1.));
#307=DIRECTION('',(-1.66533453693773E-16,-1.,2.03736779348672E-16));
#308=DIRECTION('',(1.64560042712082E-16,-2.76855728078509E-17,1.));
#309=DIRECTION('',(4.44089209850059E-16,-1.,-2.7685572807851E-17));
#310=DIRECTION('',(-2.00458348489419E-16,5.20404160028179E-17,1.));
#311=DIRECTION('',(1.02973237788458E-31,-1.,5.20404160028179E-17));
#312=DIRECTION('center_axis',(0.,0.,1.));
#313=DIRECTION('ref_axis',(1.,0.,0.));
#314=CARTESIAN_POINT('',(0.,0.,0.));
#315=CARTESIAN_POINT('',(0.,0.,0.));
#316=CARTESIAN_POINT('Origin',(2.75000000000001,-87.7499999999994,0.25));
#317=CARTESIAN_POINT('',(2.49999999999996,175.500000000001,0.));
#318=CARTESIAN_POINT('',(2.99999999999996,175.500000000001,0.5));
#319=CARTESIAN_POINT('',(2.74999999999997,175.500000000001,0.250000000000012));
#320=CARTESIAN_POINT('',(3.00000000000002,-175.499999999999,0.5));
#321=CARTESIAN_POINT('',(3.00000000000001,-87.7499999999994,0.5));
#322=CARTESIAN_POINT('',(2.50000000000002,-175.499999999999,0.));
#323=CARTESIAN_POINT('',(1.25000000000003,-175.499999999999,-1.24999999999999));
#324=CARTESIAN_POINT('',(2.50000000000001,-87.7499999999994,0.));
#325=CARTESIAN_POINT('Origin',(2.99999999999996,175.500000000001,0.));
#326=CARTESIAN_POINT('',(-2.50000000000004,175.500000000001,0.));
#327=CARTESIAN_POINT('',(2.99999999999996,175.500000000001,0.));
#328=CARTESIAN_POINT('',(-3.00000000000004,175.500000000001,0.5));
#329=CARTESIAN_POINT('',(-1.25000000000004,175.500000000001,-1.25000000000001));
#330=CARTESIAN_POINT('',(-3.00000000000004,175.500000000001,86.5));
#331=CARTESIAN_POINT('',(-3.00000000000004,175.500000000001,0.));
#332=CARTESIAN_POINT('',(-2.50000000000004,175.500000000001,87.));
#333=CARTESIAN_POINT('',(-23.0000000000001,175.500000000001,66.4999999999997));
#334=CARTESIAN_POINT('',(2.49999999999996,175.500000000001,87.));
#335=CARTESIAN_POINT('',(2.99999999999996,175.500000000001,87.));
#336=CARTESIAN_POINT('',(2.99999999999996,175.500000000001,86.5));
#337=CARTESIAN_POINT('',(24.5,175.500000000001,64.9999999999997));
#338=CARTESIAN_POINT('',(2.99999999999996,175.500000000001,0.));
#339=CARTESIAN_POINT('Origin',(-5.59776314937054E-16,6.14298528011923E-13,
0.));
#340=CARTESIAN_POINT('',(-2.49999999999994,-175.499999999999,0.));
#341=CARTESIAN_POINT('',(-2.99999999999994,-175.499999999999,0.));
#342=CARTESIAN_POINT('',(-2.50000000000002,87.7500000000006,0.));
#343=CARTESIAN_POINT('Origin',(-2.75000000000002,87.7500000000006,0.25));
#344=CARTESIAN_POINT('',(-2.99999999999994,-175.499999999999,0.5));
#345=CARTESIAN_POINT('',(-2.74999999999996,-175.499999999999,0.25000000000002));
#346=CARTESIAN_POINT('',(-3.00000000000002,87.7500000000006,0.5));
#347=CARTESIAN_POINT('Origin',(-2.75000000000002,87.7500000000006,86.75));
#348=CARTESIAN_POINT('',(-2.99999999999994,-175.499999999999,86.5));
#349=CARTESIAN_POINT('',(-2.49999999999994,-175.499999999999,87.));
#350=CARTESIAN_POINT('',(-24.5,-175.499999999999,64.9999999999997));
#351=CARTESIAN_POINT('',(-2.50000000000002,87.7500000000006,87.));
#352=CARTESIAN_POINT('',(-3.00000000000002,87.7500000000006,86.5));
#353=CARTESIAN_POINT('Origin',(-5.59776314937054E-16,6.14298528011923E-13,
87.));
#354=CARTESIAN_POINT('',(2.50000000000002,-175.499999999999,87.));
#355=CARTESIAN_POINT('',(-2.99999999999994,-175.499999999999,87.));
#356=CARTESIAN_POINT('',(2.50000000000001,-87.7499999999994,87.));
#357=CARTESIAN_POINT('Origin',(2.75000000000001,-87.7499999999994,86.75));
#358=CARTESIAN_POINT('',(3.00000000000002,-175.499999999999,86.5));
#359=CARTESIAN_POINT('',(23.,-175.499999999999,66.4999999999997));
#360=CARTESIAN_POINT('',(3.00000000000001,-87.7499999999994,86.5));
#361=CARTESIAN_POINT('Origin',(-3.00000000000004,175.500000000001,0.));
#362=CARTESIAN_POINT('',(-2.99999999999994,-175.499999999999,0.));
#363=CARTESIAN_POINT('Origin',(3.00000000000002,-175.499999999999,0.));
#364=CARTESIAN_POINT('',(3.00000000000002,-175.499999999999,0.));
#365=CARTESIAN_POINT('Origin',(-2.99999999999994,-175.499999999999,0.));
#366=CARTESIAN_POINT('',(206.399999999999,-277.5,-195.));
#367=CARTESIAN_POINT('',(206.399999999999,-277.5,-465.));
#368=CARTESIAN_POINT('',(-206.400000000001,-277.500000000001,-465.000000000001));
#369=CARTESIAN_POINT('',(-206.4,-277.500000000001,-195.));
#370=CARTESIAN_POINT('Origin',(0.,0.,0.));
#371=UNCERTAINTY_MEASURE_WITH_UNIT(LENGTH_MEASURE(0.01),#377,
'DISTANCE_ACCURACY_VALUE',
'Maximum model space distance between geometric entities at asserted c
onnectivities');
#372=UNCERTAINTY_MEASURE_WITH_UNIT(LENGTH_MEASURE(0.01),#377,
'DISTANCE_ACCURACY_VALUE',
'Maximum model space distance between geometric entities at asserted c
onnectivities');
#373=UNCERTAINTY_MEASURE_WITH_UNIT(LENGTH_MEASURE(0.01),#377,
'DISTANCE_ACCURACY_VALUE',
'Maximum model space distance between geometric entities at asserted c
onnectivities');
#374=(
GEOMETRIC_REPRESENTATION_CONTEXT(3)
GLOBAL_UNCERTAINTY_ASSIGNED_CONTEXT((#371))
GLOBAL_UNIT_ASSIGNED_CONTEXT((#377,#379,#380))
REPRESENTATION_CONTEXT('','3D')
);
#375=(
GEOMETRIC_REPRESENTATION_CONTEXT(3)
GLOBAL_UNCERTAINTY_ASSIGNED_CONTEXT((#372))
GLOBAL_UNIT_ASSIGNED_CONTEXT((#377,#379,#380))
REPRESENTATION_CONTEXT('','3D')
);
#376=(
GEOMETRIC_REPRESENTATION_CONTEXT(3)
GLOBAL_UNCERTAINTY_ASSIGNED_CONTEXT((#373))
GLOBAL_UNIT_ASSIGNED_CONTEXT((#377,#379,#380))
REPRESENTATION_CONTEXT('','3D')
);
#377=(
LENGTH_UNIT()
NAMED_UNIT(*)
SI_UNIT(.MILLI.,.METRE.)
);
#378=(
LENGTH_UNIT()
NAMED_UNIT(*)
SI_UNIT(.CENTI.,.METRE.)
);
#379=(
NAMED_UNIT(*)
PLANE_ANGLE_UNIT()
SI_UNIT($,.RADIAN.)
);
#380=(
NAMED_UNIT(*)
SI_UNIT($,.STERADIAN.)
SOLID_ANGLE_UNIT()
);
#381=SHAPE_DEFINITION_REPRESENTATION(#383,#389);
#382=SHAPE_DEFINITION_REPRESENTATION(#384,#390);
#383=PRODUCT_DEFINITION_SHAPE('',$,#392);
#384=PRODUCT_DEFINITION_SHAPE('',$,#393);
#385=PRODUCT_DEFINITION_SHAPE($,$,#29);
#386=PRODUCT_DEFINITION_SHAPE($,$,#30);
#387=PRODUCT_DEFINITION_SHAPE($,$,#31);
#388=PRODUCT_DEFINITION_SHAPE($,$,#32);
#389=SHAPE_REPRESENTATION('',(#239,#251,#252,#253,#254),#374);
#390=SHAPE_REPRESENTATION('',(#240),#375);
#391=DESIGN_CONTEXT('part definition',#399,'design');
#392=PRODUCT_DEFINITION('Pegasus Reling Set Liro 900 Master 2',
'3D_500-0355-XX Master 106653',#394,#391);
#393=PRODUCT_DEFINITION('Holz Einlage H87 Pegasus 900',
'Holz Einlage H87 Pegasus 900 093490',#395,#391);
#394=PRODUCT_DEFINITION_FORMATION('',$,#401);
#395=PRODUCT_DEFINITION_FORMATION('',$,#402);
#396=PRODUCT_RELATED_PRODUCT_CATEGORY('3D_500-0355-XX Master 106653',
'3D_500-0355-XX Master 106653',(#401));
#397=PRODUCT_RELATED_PRODUCT_CATEGORY(
'Holz Einlage H87 Pegasus 900 093490',
'Holz Einlage H87 Pegasus 900 093490',(#402));
#398=APPLICATION_PROTOCOL_DEFINITION('international standard',
'ap203_configuration_controlled_3d_design_of_mechanical_parts_and_asse
mblies_mim_lf',2004,#399);
#399=APPLICATION_CONTEXT(
'Configuration Controlled 3D Design of Mechanical Parts and Assemblies');
#400=MECHANICAL_CONTEXT('part definition',#399,'mechanical');
#401=PRODUCT('Pegasus Reling Set Liro 900 Master 2',
'3D_500-0355-XX Master 106653',$,(#400));
#402=PRODUCT('Holz Einlage H87 Pegasus 900',
'Holz Einlage H87 Pegasus 900 093490',$,(#400));
#403=PRESENTATION_STYLE_ASSIGNMENT((#406));
#404=PRESENTATION_STYLE_ASSIGNMENT((#407));
#405=PRESENTATION_STYLE_ASSIGNMENT((NULL_STYLE(.NULL.)));
#406=SURFACE_STYLE_USAGE(.BOTH.,#410);
#407=SURFACE_STYLE_USAGE(.BOTH.,#411);
#408=SURFACE_STYLE_RENDERING_WITH_PROPERTIES($,#418,(#409));
#409=SURFACE_STYLE_TRANSPARENT(0.);
#410=SURFACE_SIDE_STYLE('',(#412,#408));
#411=SURFACE_SIDE_STYLE('',(#413));
#412=SURFACE_STYLE_FILL_AREA(#414);
#413=SURFACE_STYLE_FILL_AREA(#415);
#414=FILL_AREA_STYLE('',(#416));
#415=FILL_AREA_STYLE('',(#417));
#416=FILL_AREA_STYLE_COLOUR('',#418);
#417=FILL_AREA_STYLE_COLOUR('',#419);
#418=COLOUR_RGB('',0.580392156862745,0.650980392156863,0.72156862745098);
#419=COLOUR_RGB('',0.466666666666667,0.305882352941176,0.172549019607843);
ENDSEC;
END-ISO-10303-21;
