ISO-10303-21;
HEADER;
/* Generated by software containing ST-Developer
 * from STEP Tools, Inc. (www.steptools.com) 
 */

FILE_DESCRIPTION(
/* description */ (''),
/* implementation_level */ '2;1');

FILE_NAME(
/* name */ 
'Z:\\PublicShare\\3D_Daten_Transfer\\3D_200-2539-XX.sat.ipt.stp',
/* time_stamp */ '2022-06-09T10:15:59+02:00',
/* author */ (''),
/* organization */ (''),
/* preprocessor_version */ 'ST-DEVELOPER v18.1',
/* originating_system */ 'Autodesk Inventor 2021',
/* authorisation */ '');

FILE_SCHEMA (('CONFIG_CONTROL_DESIGN'));
ENDSEC;

DATA;
#10=MECHANICAL_DESIGN_GEOMETRIC_PRESENTATION_REPRESENTATION('',(#347,#348,
#349,#350,#351,#352,#353,#354,#355,#356,#357,#358,#359,#360,#361,#362,#363,
#364,#365,#366,#367,#368),#624);
#11=SHAPE_REPRESENTATION_RELATIONSHIP('SRR','None',#631,#12);
#12=ADVANCED_BREP_SHAPE_REPRESENTATION('',(#13,#14),#623);
#13=MANIFOLD_SOLID_BREP('Volumenk\X\F6rper1',#389);
#14=MANIFOLD_SOLID_BREP('Volumenk\X\F6rper2',#390);
#15=FACE_OUTER_BOUND('',#35,.T.);
#16=FACE_OUTER_BOUND('',#36,.T.);
#17=FACE_OUTER_BOUND('',#37,.T.);
#18=FACE_OUTER_BOUND('',#38,.T.);
#19=FACE_OUTER_BOUND('',#39,.T.);
#20=FACE_OUTER_BOUND('',#40,.T.);
#21=FACE_OUTER_BOUND('',#41,.T.);
#22=FACE_OUTER_BOUND('',#42,.T.);
#23=FACE_OUTER_BOUND('',#43,.T.);
#24=FACE_OUTER_BOUND('',#44,.T.);
#25=FACE_OUTER_BOUND('',#45,.T.);
#26=FACE_OUTER_BOUND('',#46,.T.);
#27=FACE_OUTER_BOUND('',#47,.T.);
#28=FACE_OUTER_BOUND('',#48,.T.);
#29=FACE_OUTER_BOUND('',#49,.T.);
#30=FACE_OUTER_BOUND('',#50,.T.);
#31=FACE_OUTER_BOUND('',#51,.T.);
#32=FACE_OUTER_BOUND('',#52,.T.);
#33=FACE_OUTER_BOUND('',#53,.T.);
#34=FACE_OUTER_BOUND('',#54,.T.);
#35=EDGE_LOOP('',(#231,#232,#233,#234));
#36=EDGE_LOOP('',(#235,#236,#237,#238,#239,#240,#241,#242));
#37=EDGE_LOOP('',(#243,#244,#245,#246));
#38=EDGE_LOOP('',(#247,#248,#249,#250));
#39=EDGE_LOOP('',(#251,#252,#253,#254));
#40=EDGE_LOOP('',(#255,#256,#257,#258));
#41=EDGE_LOOP('',(#259,#260,#261,#262));
#42=EDGE_LOOP('',(#263,#264,#265,#266));
#43=EDGE_LOOP('',(#267,#268,#269,#270));
#44=EDGE_LOOP('',(#271,#272,#273,#274,#275,#276,#277,#278));
#45=EDGE_LOOP('',(#279,#280,#281,#282));
#46=EDGE_LOOP('',(#283,#284,#285,#286,#287,#288,#289,#290));
#47=EDGE_LOOP('',(#291,#292,#293,#294));
#48=EDGE_LOOP('',(#295,#296,#297,#298));
#49=EDGE_LOOP('',(#299,#300,#301,#302));
#50=EDGE_LOOP('',(#303,#304,#305,#306));
#51=EDGE_LOOP('',(#307,#308,#309,#310));
#52=EDGE_LOOP('',(#311,#312,#313,#314));
#53=EDGE_LOOP('',(#315,#316,#317,#318));
#54=EDGE_LOOP('',(#319,#320,#321,#322,#323,#324,#325,#326));
#55=LINE('',#524,#103);
#56=LINE('',#526,#104);
#57=LINE('',#528,#105);
#58=LINE('',#529,#106);
#59=LINE('',#532,#107);
#60=LINE('',#534,#108);
#61=LINE('',#536,#109);
#62=LINE('',#538,#110);
#63=LINE('',#540,#111);
#64=LINE('',#542,#112);
#65=LINE('',#543,#113);
#66=LINE('',#546,#114);
#67=LINE('',#547,#115);
#68=LINE('',#550,#116);
#69=LINE('',#551,#117);
#70=LINE('',#555,#118);
#71=LINE('',#556,#119);
#72=LINE('',#557,#120);
#73=LINE('',#560,#121);
#74=LINE('',#561,#122);
#75=LINE('',#564,#123);
#76=LINE('',#565,#124);
#77=LINE('',#567,#125);
#78=LINE('',#569,#126);
#79=LINE('',#574,#127);
#80=LINE('',#576,#128);
#81=LINE('',#578,#129);
#82=LINE('',#579,#130);
#83=LINE('',#582,#131);
#84=LINE('',#584,#132);
#85=LINE('',#586,#133);
#86=LINE('',#588,#134);
#87=LINE('',#590,#135);
#88=LINE('',#592,#136);
#89=LINE('',#593,#137);
#90=LINE('',#596,#138);
#91=LINE('',#597,#139);
#92=LINE('',#600,#140);
#93=LINE('',#601,#141);
#94=LINE('',#605,#142);
#95=LINE('',#606,#143);
#96=LINE('',#607,#144);
#97=LINE('',#610,#145);
#98=LINE('',#611,#146);
#99=LINE('',#614,#147);
#100=LINE('',#615,#148);
#101=LINE('',#617,#149);
#102=LINE('',#619,#150);
#103=VECTOR('',#434,10.);
#104=VECTOR('',#435,10.);
#105=VECTOR('',#436,10.);
#106=VECTOR('',#437,10.);
#107=VECTOR('',#440,10.);
#108=VECTOR('',#441,10.);
#109=VECTOR('',#442,10.);
#110=VECTOR('',#443,10.);
#111=VECTOR('',#444,10.);
#112=VECTOR('',#445,10.);
#113=VECTOR('',#446,10.);
#114=VECTOR('',#449,10.);
#115=VECTOR('',#450,10.);
#116=VECTOR('',#453,10.);
#117=VECTOR('',#454,10.);
#118=VECTOR('',#457,10.);
#119=VECTOR('',#458,10.);
#120=VECTOR('',#459,10.);
#121=VECTOR('',#462,10.);
#122=VECTOR('',#463,10.);
#123=VECTOR('',#466,10.);
#124=VECTOR('',#467,10.);
#125=VECTOR('',#470,10.);
#126=VECTOR('',#473,10.);
#127=VECTOR('',#478,10.);
#128=VECTOR('',#479,10.);
#129=VECTOR('',#480,10.);
#130=VECTOR('',#481,10.);
#131=VECTOR('',#484,10.);
#132=VECTOR('',#485,10.);
#133=VECTOR('',#486,10.);
#134=VECTOR('',#487,10.);
#135=VECTOR('',#488,10.);
#136=VECTOR('',#489,10.);
#137=VECTOR('',#490,10.);
#138=VECTOR('',#493,10.);
#139=VECTOR('',#494,10.);
#140=VECTOR('',#497,10.);
#141=VECTOR('',#498,10.);
#142=VECTOR('',#501,10.);
#143=VECTOR('',#502,10.);
#144=VECTOR('',#503,10.);
#145=VECTOR('',#506,10.);
#146=VECTOR('',#507,10.);
#147=VECTOR('',#510,10.);
#148=VECTOR('',#511,10.);
#149=VECTOR('',#514,10.);
#150=VECTOR('',#517,10.);
#151=VERTEX_POINT('',#522);
#152=VERTEX_POINT('',#523);
#153=VERTEX_POINT('',#525);
#154=VERTEX_POINT('',#527);
#155=VERTEX_POINT('',#531);
#156=VERTEX_POINT('',#533);
#157=VERTEX_POINT('',#535);
#158=VERTEX_POINT('',#537);
#159=VERTEX_POINT('',#539);
#160=VERTEX_POINT('',#541);
#161=VERTEX_POINT('',#545);
#162=VERTEX_POINT('',#549);
#163=VERTEX_POINT('',#553);
#164=VERTEX_POINT('',#554);
#165=VERTEX_POINT('',#559);
#166=VERTEX_POINT('',#563);
#167=VERTEX_POINT('',#572);
#168=VERTEX_POINT('',#573);
#169=VERTEX_POINT('',#575);
#170=VERTEX_POINT('',#577);
#171=VERTEX_POINT('',#581);
#172=VERTEX_POINT('',#583);
#173=VERTEX_POINT('',#585);
#174=VERTEX_POINT('',#587);
#175=VERTEX_POINT('',#589);
#176=VERTEX_POINT('',#591);
#177=VERTEX_POINT('',#595);
#178=VERTEX_POINT('',#599);
#179=VERTEX_POINT('',#603);
#180=VERTEX_POINT('',#604);
#181=VERTEX_POINT('',#609);
#182=VERTEX_POINT('',#613);
#183=EDGE_CURVE('',#151,#152,#55,.T.);
#184=EDGE_CURVE('',#152,#153,#56,.T.);
#185=EDGE_CURVE('',#153,#154,#57,.T.);
#186=EDGE_CURVE('',#154,#151,#58,.T.);
#187=EDGE_CURVE('',#151,#155,#59,.T.);
#188=EDGE_CURVE('',#156,#155,#60,.T.);
#189=EDGE_CURVE('',#156,#157,#61,.T.);
#190=EDGE_CURVE('',#158,#157,#62,.T.);
#191=EDGE_CURVE('',#159,#158,#63,.T.);
#192=EDGE_CURVE('',#160,#159,#64,.T.);
#193=EDGE_CURVE('',#152,#160,#65,.T.);
#194=EDGE_CURVE('',#161,#154,#66,.T.);
#195=EDGE_CURVE('',#155,#161,#67,.T.);
#196=EDGE_CURVE('',#161,#162,#68,.T.);
#197=EDGE_CURVE('',#162,#156,#69,.T.);
#198=EDGE_CURVE('',#163,#164,#70,.T.);
#199=EDGE_CURVE('',#164,#158,#71,.T.);
#200=EDGE_CURVE('',#157,#163,#72,.T.);
#201=EDGE_CURVE('',#164,#165,#73,.T.);
#202=EDGE_CURVE('',#159,#165,#74,.T.);
#203=EDGE_CURVE('',#165,#166,#75,.T.);
#204=EDGE_CURVE('',#166,#160,#76,.T.);
#205=EDGE_CURVE('',#162,#163,#77,.T.);
#206=EDGE_CURVE('',#153,#166,#78,.T.);
#207=EDGE_CURVE('',#167,#168,#79,.T.);
#208=EDGE_CURVE('',#168,#169,#80,.T.);
#209=EDGE_CURVE('',#169,#170,#81,.T.);
#210=EDGE_CURVE('',#170,#167,#82,.T.);
#211=EDGE_CURVE('',#167,#171,#83,.T.);
#212=EDGE_CURVE('',#172,#171,#84,.T.);
#213=EDGE_CURVE('',#172,#173,#85,.T.);
#214=EDGE_CURVE('',#174,#173,#86,.T.);
#215=EDGE_CURVE('',#175,#174,#87,.T.);
#216=EDGE_CURVE('',#176,#175,#88,.T.);
#217=EDGE_CURVE('',#168,#176,#89,.T.);
#218=EDGE_CURVE('',#177,#170,#90,.T.);
#219=EDGE_CURVE('',#171,#177,#91,.T.);
#220=EDGE_CURVE('',#177,#178,#92,.T.);
#221=EDGE_CURVE('',#178,#172,#93,.T.);
#222=EDGE_CURVE('',#179,#180,#94,.T.);
#223=EDGE_CURVE('',#180,#174,#95,.T.);
#224=EDGE_CURVE('',#173,#179,#96,.T.);
#225=EDGE_CURVE('',#180,#181,#97,.T.);
#226=EDGE_CURVE('',#175,#181,#98,.T.);
#227=EDGE_CURVE('',#181,#182,#99,.T.);
#228=EDGE_CURVE('',#182,#176,#100,.T.);
#229=EDGE_CURVE('',#178,#179,#101,.T.);
#230=EDGE_CURVE('',#169,#182,#102,.T.);
#231=ORIENTED_EDGE('',*,*,#183,.T.);
#232=ORIENTED_EDGE('',*,*,#184,.T.);
#233=ORIENTED_EDGE('',*,*,#185,.T.);
#234=ORIENTED_EDGE('',*,*,#186,.T.);
#235=ORIENTED_EDGE('',*,*,#183,.F.);
#236=ORIENTED_EDGE('',*,*,#187,.T.);
#237=ORIENTED_EDGE('',*,*,#188,.F.);
#238=ORIENTED_EDGE('',*,*,#189,.T.);
#239=ORIENTED_EDGE('',*,*,#190,.F.);
#240=ORIENTED_EDGE('',*,*,#191,.F.);
#241=ORIENTED_EDGE('',*,*,#192,.F.);
#242=ORIENTED_EDGE('',*,*,#193,.F.);
#243=ORIENTED_EDGE('',*,*,#186,.F.);
#244=ORIENTED_EDGE('',*,*,#194,.F.);
#245=ORIENTED_EDGE('',*,*,#195,.F.);
#246=ORIENTED_EDGE('',*,*,#187,.F.);
#247=ORIENTED_EDGE('',*,*,#196,.T.);
#248=ORIENTED_EDGE('',*,*,#197,.T.);
#249=ORIENTED_EDGE('',*,*,#188,.T.);
#250=ORIENTED_EDGE('',*,*,#195,.T.);
#251=ORIENTED_EDGE('',*,*,#198,.T.);
#252=ORIENTED_EDGE('',*,*,#199,.T.);
#253=ORIENTED_EDGE('',*,*,#190,.T.);
#254=ORIENTED_EDGE('',*,*,#200,.T.);
#255=ORIENTED_EDGE('',*,*,#199,.F.);
#256=ORIENTED_EDGE('',*,*,#201,.T.);
#257=ORIENTED_EDGE('',*,*,#202,.F.);
#258=ORIENTED_EDGE('',*,*,#191,.T.);
#259=ORIENTED_EDGE('',*,*,#192,.T.);
#260=ORIENTED_EDGE('',*,*,#202,.T.);
#261=ORIENTED_EDGE('',*,*,#203,.T.);
#262=ORIENTED_EDGE('',*,*,#204,.T.);
#263=ORIENTED_EDGE('',*,*,#197,.F.);
#264=ORIENTED_EDGE('',*,*,#205,.T.);
#265=ORIENTED_EDGE('',*,*,#200,.F.);
#266=ORIENTED_EDGE('',*,*,#189,.F.);
#267=ORIENTED_EDGE('',*,*,#184,.F.);
#268=ORIENTED_EDGE('',*,*,#193,.T.);
#269=ORIENTED_EDGE('',*,*,#204,.F.);
#270=ORIENTED_EDGE('',*,*,#206,.F.);
#271=ORIENTED_EDGE('',*,*,#185,.F.);
#272=ORIENTED_EDGE('',*,*,#206,.T.);
#273=ORIENTED_EDGE('',*,*,#203,.F.);
#274=ORIENTED_EDGE('',*,*,#201,.F.);
#275=ORIENTED_EDGE('',*,*,#198,.F.);
#276=ORIENTED_EDGE('',*,*,#205,.F.);
#277=ORIENTED_EDGE('',*,*,#196,.F.);
#278=ORIENTED_EDGE('',*,*,#194,.T.);
#279=ORIENTED_EDGE('',*,*,#207,.T.);
#280=ORIENTED_EDGE('',*,*,#208,.T.);
#281=ORIENTED_EDGE('',*,*,#209,.T.);
#282=ORIENTED_EDGE('',*,*,#210,.T.);
#283=ORIENTED_EDGE('',*,*,#207,.F.);
#284=ORIENTED_EDGE('',*,*,#211,.T.);
#285=ORIENTED_EDGE('',*,*,#212,.F.);
#286=ORIENTED_EDGE('',*,*,#213,.T.);
#287=ORIENTED_EDGE('',*,*,#214,.F.);
#288=ORIENTED_EDGE('',*,*,#215,.F.);
#289=ORIENTED_EDGE('',*,*,#216,.F.);
#290=ORIENTED_EDGE('',*,*,#217,.F.);
#291=ORIENTED_EDGE('',*,*,#210,.F.);
#292=ORIENTED_EDGE('',*,*,#218,.F.);
#293=ORIENTED_EDGE('',*,*,#219,.F.);
#294=ORIENTED_EDGE('',*,*,#211,.F.);
#295=ORIENTED_EDGE('',*,*,#220,.T.);
#296=ORIENTED_EDGE('',*,*,#221,.T.);
#297=ORIENTED_EDGE('',*,*,#212,.T.);
#298=ORIENTED_EDGE('',*,*,#219,.T.);
#299=ORIENTED_EDGE('',*,*,#222,.T.);
#300=ORIENTED_EDGE('',*,*,#223,.T.);
#301=ORIENTED_EDGE('',*,*,#214,.T.);
#302=ORIENTED_EDGE('',*,*,#224,.T.);
#303=ORIENTED_EDGE('',*,*,#223,.F.);
#304=ORIENTED_EDGE('',*,*,#225,.T.);
#305=ORIENTED_EDGE('',*,*,#226,.F.);
#306=ORIENTED_EDGE('',*,*,#215,.T.);
#307=ORIENTED_EDGE('',*,*,#216,.T.);
#308=ORIENTED_EDGE('',*,*,#226,.T.);
#309=ORIENTED_EDGE('',*,*,#227,.T.);
#310=ORIENTED_EDGE('',*,*,#228,.T.);
#311=ORIENTED_EDGE('',*,*,#221,.F.);
#312=ORIENTED_EDGE('',*,*,#229,.T.);
#313=ORIENTED_EDGE('',*,*,#224,.F.);
#314=ORIENTED_EDGE('',*,*,#213,.F.);
#315=ORIENTED_EDGE('',*,*,#208,.F.);
#316=ORIENTED_EDGE('',*,*,#217,.T.);
#317=ORIENTED_EDGE('',*,*,#228,.F.);
#318=ORIENTED_EDGE('',*,*,#230,.F.);
#319=ORIENTED_EDGE('',*,*,#209,.F.);
#320=ORIENTED_EDGE('',*,*,#230,.T.);
#321=ORIENTED_EDGE('',*,*,#227,.F.);
#322=ORIENTED_EDGE('',*,*,#225,.F.);
#323=ORIENTED_EDGE('',*,*,#222,.F.);
#324=ORIENTED_EDGE('',*,*,#229,.F.);
#325=ORIENTED_EDGE('',*,*,#220,.F.);
#326=ORIENTED_EDGE('',*,*,#218,.T.);
#327=PLANE('',#410);
#328=PLANE('',#411);
#329=PLANE('',#412);
#330=PLANE('',#413);
#331=PLANE('',#414);
#332=PLANE('',#415);
#333=PLANE('',#416);
#334=PLANE('',#417);
#335=PLANE('',#418);
#336=PLANE('',#419);
#337=PLANE('',#420);
#338=PLANE('',#421);
#339=PLANE('',#422);
#340=PLANE('',#423);
#341=PLANE('',#424);
#342=PLANE('',#425);
#343=PLANE('',#426);
#344=PLANE('',#427);
#345=PLANE('',#428);
#346=PLANE('',#429);
#347=STYLED_ITEM('',(#641),#369);
#348=STYLED_ITEM('',(#641),#370);
#349=STYLED_ITEM('',(#641),#371);
#350=STYLED_ITEM('',(#641),#372);
#351=STYLED_ITEM('',(#641),#373);
#352=STYLED_ITEM('',(#641),#374);
#353=STYLED_ITEM('',(#641),#375);
#354=STYLED_ITEM('',(#641),#376);
#355=STYLED_ITEM('',(#641),#377);
#356=STYLED_ITEM('',(#641),#378);
#357=STYLED_ITEM('',(#640),#13);
#358=STYLED_ITEM('',(#641),#379);
#359=STYLED_ITEM('',(#641),#380);
#360=STYLED_ITEM('',(#641),#381);
#361=STYLED_ITEM('',(#641),#382);
#362=STYLED_ITEM('',(#641),#383);
#363=STYLED_ITEM('',(#641),#384);
#364=STYLED_ITEM('',(#641),#385);
#365=STYLED_ITEM('',(#641),#386);
#366=STYLED_ITEM('',(#641),#387);
#367=STYLED_ITEM('',(#641),#388);
#368=STYLED_ITEM('',(#640),#14);
#369=ADVANCED_FACE('',(#15),#327,.T.);
#370=ADVANCED_FACE('',(#16),#328,.T.);
#371=ADVANCED_FACE('',(#17),#329,.F.);
#372=ADVANCED_FACE('',(#18),#330,.T.);
#373=ADVANCED_FACE('',(#19),#331,.T.);
#374=ADVANCED_FACE('',(#20),#332,.T.);
#375=ADVANCED_FACE('',(#21),#333,.T.);
#376=ADVANCED_FACE('',(#22),#334,.T.);
#377=ADVANCED_FACE('',(#23),#335,.T.);
#378=ADVANCED_FACE('',(#24),#336,.T.);
#379=ADVANCED_FACE('',(#25),#337,.T.);
#380=ADVANCED_FACE('',(#26),#338,.T.);
#381=ADVANCED_FACE('',(#27),#339,.F.);
#382=ADVANCED_FACE('',(#28),#340,.T.);
#383=ADVANCED_FACE('',(#29),#341,.T.);
#384=ADVANCED_FACE('',(#30),#342,.T.);
#385=ADVANCED_FACE('',(#31),#343,.T.);
#386=ADVANCED_FACE('',(#32),#344,.T.);
#387=ADVANCED_FACE('',(#33),#345,.T.);
#388=ADVANCED_FACE('',(#34),#346,.T.);
#389=CLOSED_SHELL('',(#369,#370,#371,#372,#373,#374,#375,#376,#377,#378));
#390=CLOSED_SHELL('',(#379,#380,#381,#382,#383,#384,#385,#386,#387,#388));
#391=DERIVED_UNIT_ELEMENT(#393,1.);
#392=DERIVED_UNIT_ELEMENT(#626,-3.);
#393=(
MASS_UNIT()
NAMED_UNIT(*)
SI_UNIT($,.GRAM.)
);
#394=DERIVED_UNIT((#391,#392));
#395=MEASURE_REPRESENTATION_ITEM('density measure',
POSITIVE_RATIO_MEASURE(7.85),#394);
#396=PROPERTY_DEFINITION_REPRESENTATION(#401,#398);
#397=PROPERTY_DEFINITION_REPRESENTATION(#402,#399);
#398=REPRESENTATION('material name',(#400),#623);
#399=REPRESENTATION('density',(#395),#623);
#400=DESCRIPTIVE_REPRESENTATION_ITEM('1.0037 St 37-2','1.0037 St 37-2');
#401=PROPERTY_DEFINITION('material property','material name',#633);
#402=PROPERTY_DEFINITION('material property','density of part',#633);
#403=DATE_TIME_ROLE('creation_date');
#404=CC_DESIGN_DATE_AND_TIME_ASSIGNMENT(#405,#403,(#633));
#405=DATE_AND_TIME(#406,#407);
#406=CALENDAR_DATE(2022,9,6);
#407=LOCAL_TIME(0,0,0.,#408);
#408=COORDINATED_UNIVERSAL_TIME_OFFSET(0,0,.BEHIND.);
#409=AXIS2_PLACEMENT_3D('placement',#520,#430,#431);
#410=AXIS2_PLACEMENT_3D('',#521,#432,#433);
#411=AXIS2_PLACEMENT_3D('',#530,#438,#439);
#412=AXIS2_PLACEMENT_3D('',#544,#447,#448);
#413=AXIS2_PLACEMENT_3D('',#548,#451,#452);
#414=AXIS2_PLACEMENT_3D('',#552,#455,#456);
#415=AXIS2_PLACEMENT_3D('',#558,#460,#461);
#416=AXIS2_PLACEMENT_3D('',#562,#464,#465);
#417=AXIS2_PLACEMENT_3D('',#566,#468,#469);
#418=AXIS2_PLACEMENT_3D('',#568,#471,#472);
#419=AXIS2_PLACEMENT_3D('',#570,#474,#475);
#420=AXIS2_PLACEMENT_3D('',#571,#476,#477);
#421=AXIS2_PLACEMENT_3D('',#580,#482,#483);
#422=AXIS2_PLACEMENT_3D('',#594,#491,#492);
#423=AXIS2_PLACEMENT_3D('',#598,#495,#496);
#424=AXIS2_PLACEMENT_3D('',#602,#499,#500);
#425=AXIS2_PLACEMENT_3D('',#608,#504,#505);
#426=AXIS2_PLACEMENT_3D('',#612,#508,#509);
#427=AXIS2_PLACEMENT_3D('',#616,#512,#513);
#428=AXIS2_PLACEMENT_3D('',#618,#515,#516);
#429=AXIS2_PLACEMENT_3D('',#620,#518,#519);
#430=DIRECTION('axis',(0.,0.,1.));
#431=DIRECTION('refdir',(1.,0.,0.));
#432=DIRECTION('center_axis',(0.707106781186548,1.28764196347082E-16,-0.707106781186548));
#433=DIRECTION('ref_axis',(-0.707106781186548,0.,-0.707106781186548));
#434=DIRECTION('',(0.707106781186547,0.,0.707106781186547));
#435=DIRECTION('',(1.82100072822116E-16,-1.,0.));
#436=DIRECTION('',(-0.707106781186547,0.,-0.707106781186547));
#437=DIRECTION('',(-1.82100072822116E-16,1.,0.));
#438=DIRECTION('center_axis',(0.,1.,0.));
#439=DIRECTION('ref_axis',(-1.,0.,0.));
#440=DIRECTION('',(-1.,0.,0.));
#441=DIRECTION('',(0.707106781186547,0.,-0.707106781186547));
#442=DIRECTION('',(0.,0.,1.));
#443=DIRECTION('',(-0.70710678118655,0.,-0.707106781186545));
#444=DIRECTION('',(-1.,0.,0.));
#445=DIRECTION('',(-0.70710678118655,0.,0.707106781186545));
#446=DIRECTION('',(0.,0.,1.));
#447=DIRECTION('center_axis',(0.,0.,1.));
#448=DIRECTION('ref_axis',(1.,0.,0.));
#449=DIRECTION('',(1.,0.,0.));
#450=DIRECTION('',(3.05458186669355E-16,-1.,0.));
#451=DIRECTION('center_axis',(-0.707106781186548,-2.15991555162847E-16,
-0.707106781186548));
#452=DIRECTION('ref_axis',(-0.707106781186548,0.,0.707106781186548));
#453=DIRECTION('',(-0.707106781186547,0.,0.707106781186547));
#454=DIRECTION('',(-3.05458186669355E-16,1.,0.));
#455=DIRECTION('center_axis',(-0.707106781186545,-2.15991555162847E-16,
0.70710678118655));
#456=DIRECTION('ref_axis',(0.70710678118655,0.,0.707106781186545));
#457=DIRECTION('',(0.70710678118655,0.,0.707106781186545));
#458=DIRECTION('',(-3.05458186669355E-16,1.,0.));
#459=DIRECTION('',(3.05458186669355E-16,-1.,0.));
#460=DIRECTION('center_axis',(0.,0.,1.));
#461=DIRECTION('ref_axis',(1.,0.,0.));
#462=DIRECTION('',(1.,0.,0.));
#463=DIRECTION('',(1.82100072822116E-16,-1.,0.));
#464=DIRECTION('center_axis',(0.707106781186545,1.28764196347082E-16,0.70710678118655));
#465=DIRECTION('ref_axis',(0.70710678118655,0.,-0.707106781186545));
#466=DIRECTION('',(0.70710678118655,0.,-0.707106781186545));
#467=DIRECTION('',(-1.82100072822116E-16,1.,0.));
#468=DIRECTION('center_axis',(-1.,-3.05458186669355E-16,0.));
#469=DIRECTION('ref_axis',(3.05458186669355E-16,-1.,0.));
#470=DIRECTION('',(0.,0.,1.));
#471=DIRECTION('center_axis',(1.,1.82100072822116E-16,0.));
#472=DIRECTION('ref_axis',(-1.82100072822116E-16,1.,0.));
#473=DIRECTION('',(0.,0.,1.));
#474=DIRECTION('center_axis',(0.,-1.,0.));
#475=DIRECTION('ref_axis',(1.,0.,0.));
#476=DIRECTION('center_axis',(0.707106781186548,1.28764196347082E-16,-0.707106781186548));
#477=DIRECTION('ref_axis',(-0.707106781186548,0.,-0.707106781186548));
#478=DIRECTION('',(0.707106781186547,0.,0.707106781186547));
#479=DIRECTION('',(1.82100072822116E-16,-1.,0.));
#480=DIRECTION('',(-0.707106781186547,0.,-0.707106781186547));
#481=DIRECTION('',(-1.82100072822116E-16,1.,0.));
#482=DIRECTION('center_axis',(0.,1.,0.));
#483=DIRECTION('ref_axis',(-1.,0.,0.));
#484=DIRECTION('',(-1.,0.,0.));
#485=DIRECTION('',(0.707106781186547,0.,-0.707106781186547));
#486=DIRECTION('',(0.,0.,1.));
#487=DIRECTION('',(-0.70710678118655,0.,-0.707106781186545));
#488=DIRECTION('',(-1.,0.,0.));
#489=DIRECTION('',(-0.70710678118655,0.,0.707106781186545));
#490=DIRECTION('',(0.,0.,1.));
#491=DIRECTION('center_axis',(0.,0.,1.));
#492=DIRECTION('ref_axis',(1.,0.,0.));
#493=DIRECTION('',(1.,0.,0.));
#494=DIRECTION('',(3.05458186669355E-16,-1.,0.));
#495=DIRECTION('center_axis',(-0.707106781186548,-2.15991555162847E-16,
-0.707106781186548));
#496=DIRECTION('ref_axis',(-0.707106781186548,0.,0.707106781186548));
#497=DIRECTION('',(-0.707106781186547,0.,0.707106781186547));
#498=DIRECTION('',(-3.05458186669355E-16,1.,0.));
#499=DIRECTION('center_axis',(-0.707106781186545,-2.15991555162847E-16,
0.70710678118655));
#500=DIRECTION('ref_axis',(0.70710678118655,0.,0.707106781186545));
#501=DIRECTION('',(0.70710678118655,0.,0.707106781186545));
#502=DIRECTION('',(-3.05458186669355E-16,1.,0.));
#503=DIRECTION('',(3.05458186669355E-16,-1.,0.));
#504=DIRECTION('center_axis',(0.,0.,1.));
#505=DIRECTION('ref_axis',(1.,0.,0.));
#506=DIRECTION('',(1.,0.,0.));
#507=DIRECTION('',(1.82100072822116E-16,-1.,0.));
#508=DIRECTION('center_axis',(0.707106781186545,1.28764196347082E-16,0.70710678118655));
#509=DIRECTION('ref_axis',(0.70710678118655,0.,-0.707106781186545));
#510=DIRECTION('',(0.70710678118655,0.,-0.707106781186545));
#511=DIRECTION('',(-1.82100072822116E-16,1.,0.));
#512=DIRECTION('center_axis',(-1.,-3.05458186669355E-16,0.));
#513=DIRECTION('ref_axis',(3.05458186669355E-16,-1.,0.));
#514=DIRECTION('',(0.,0.,1.));
#515=DIRECTION('center_axis',(1.,1.82100072822116E-16,0.));
#516=DIRECTION('ref_axis',(-1.82100072822116E-16,1.,0.));
#517=DIRECTION('',(0.,0.,1.));
#518=DIRECTION('center_axis',(0.,-1.,0.));
#519=DIRECTION('ref_axis',(1.,0.,0.));
#520=CARTESIAN_POINT('',(0.,0.,0.));
#521=CARTESIAN_POINT('Origin',(2.70000000000001,-118.124999999999,0.3));
#522=CARTESIAN_POINT('',(2.39999999999994,236.250000000001,0.));
#523=CARTESIAN_POINT('',(2.99999999999994,236.250000000001,0.6));
#524=CARTESIAN_POINT('',(2.69999999999996,236.250000000001,0.300000000000016));
#525=CARTESIAN_POINT('',(3.00000000000003,-236.249999999999,0.6));
#526=CARTESIAN_POINT('',(3.00000000000001,-118.124999999999,0.6));
#527=CARTESIAN_POINT('',(2.40000000000003,-236.249999999999,0.));
#528=CARTESIAN_POINT('',(1.20000000000004,-236.249999999999,-1.19999999999999));
#529=CARTESIAN_POINT('',(2.40000000000001,-118.124999999999,0.));
#530=CARTESIAN_POINT('Origin',(2.99999999999994,236.250000000001,0.));
#531=CARTESIAN_POINT('',(-2.40000000000006,236.250000000001,0.));
#532=CARTESIAN_POINT('',(2.99999999999994,236.250000000001,0.));
#533=CARTESIAN_POINT('',(-3.00000000000006,236.250000000001,0.6));
#534=CARTESIAN_POINT('',(-1.20000000000005,236.250000000001,-1.20000000000001));
#535=CARTESIAN_POINT('',(-3.00000000000006,236.250000000001,76.4));
#536=CARTESIAN_POINT('',(-3.00000000000006,236.250000000001,0.));
#537=CARTESIAN_POINT('',(-2.40000000000006,236.250000000001,77.));
#538=CARTESIAN_POINT('',(-20.45,236.250000000001,58.9500000000001));
#539=CARTESIAN_POINT('',(2.39999999999994,236.250000000001,77.));
#540=CARTESIAN_POINT('',(2.99999999999994,236.250000000001,77.));
#541=CARTESIAN_POINT('',(2.99999999999994,236.250000000001,76.4));
#542=CARTESIAN_POINT('',(21.95,236.250000000001,57.4500000000001));
#543=CARTESIAN_POINT('',(2.99999999999994,236.250000000001,0.));
#544=CARTESIAN_POINT('Origin',(0.,1.15101240973051E-12,0.));
#545=CARTESIAN_POINT('',(-2.39999999999991,-236.249999999999,0.));
#546=CARTESIAN_POINT('',(-2.99999999999991,-236.249999999999,0.));
#547=CARTESIAN_POINT('',(-2.40000000000002,118.125000000001,0.));
#548=CARTESIAN_POINT('Origin',(-2.70000000000002,118.125000000001,0.3));
#549=CARTESIAN_POINT('',(-2.99999999999991,-236.249999999999,0.6));
#550=CARTESIAN_POINT('',(-2.69999999999994,-236.249999999999,0.300000000000027));
#551=CARTESIAN_POINT('',(-3.00000000000002,118.125000000001,0.6));
#552=CARTESIAN_POINT('Origin',(-2.70000000000002,118.125000000001,76.7));
#553=CARTESIAN_POINT('',(-2.99999999999991,-236.249999999999,76.4));
#554=CARTESIAN_POINT('',(-2.39999999999991,-236.249999999999,77.));
#555=CARTESIAN_POINT('',(-21.9499999999999,-236.249999999999,57.4500000000001));
#556=CARTESIAN_POINT('',(-2.40000000000002,118.125000000001,77.));
#557=CARTESIAN_POINT('',(-3.00000000000002,118.125000000001,76.4));
#558=CARTESIAN_POINT('Origin',(0.,1.15101240973051E-12,77.));
#559=CARTESIAN_POINT('',(2.40000000000003,-236.249999999999,77.));
#560=CARTESIAN_POINT('',(-2.99999999999991,-236.249999999999,77.));
#561=CARTESIAN_POINT('',(2.40000000000001,-118.124999999999,77.));
#562=CARTESIAN_POINT('Origin',(2.70000000000001,-118.124999999999,76.7));
#563=CARTESIAN_POINT('',(3.00000000000003,-236.249999999999,76.4));
#564=CARTESIAN_POINT('',(20.45,-236.249999999999,58.9500000000001));
#565=CARTESIAN_POINT('',(3.00000000000001,-118.124999999999,76.4));
#566=CARTESIAN_POINT('Origin',(-3.00000000000006,236.250000000001,0.));
#567=CARTESIAN_POINT('',(-2.99999999999991,-236.249999999999,0.));
#568=CARTESIAN_POINT('Origin',(3.00000000000003,-236.249999999999,0.));
#569=CARTESIAN_POINT('',(3.00000000000003,-236.249999999999,0.));
#570=CARTESIAN_POINT('Origin',(-2.99999999999991,-236.249999999999,0.));
#571=CARTESIAN_POINT('Origin',(109.764256620328,-118.124999999999,0.3));
#572=CARTESIAN_POINT('',(109.464256620327,236.250000000001,0.));
#573=CARTESIAN_POINT('',(110.064256620327,236.250000000001,0.6));
#574=CARTESIAN_POINT('',(109.764256620327,236.250000000001,0.300000000000016));
#575=CARTESIAN_POINT('',(110.064256620328,-236.249999999999,0.6));
#576=CARTESIAN_POINT('',(110.064256620328,-118.124999999999,0.6));
#577=CARTESIAN_POINT('',(109.464256620328,-236.249999999999,0.));
#578=CARTESIAN_POINT('',(108.264256620328,-236.249999999999,-1.19999999999999));
#579=CARTESIAN_POINT('',(109.464256620328,-118.124999999999,0.));
#580=CARTESIAN_POINT('Origin',(110.064256620327,236.250000000001,0.));
#581=CARTESIAN_POINT('',(104.664256620327,236.250000000001,0.));
#582=CARTESIAN_POINT('',(110.064256620327,236.250000000001,0.));
#583=CARTESIAN_POINT('',(104.064256620327,236.250000000001,0.6));
#584=CARTESIAN_POINT('',(105.864256620327,236.250000000001,-1.20000000000001));
#585=CARTESIAN_POINT('',(104.064256620327,236.250000000001,76.4));
#586=CARTESIAN_POINT('',(104.064256620327,236.250000000001,0.));
#587=CARTESIAN_POINT('',(104.664256620327,236.250000000001,77.));
#588=CARTESIAN_POINT('',(86.6142566203275,236.250000000001,58.9500000000001));
#589=CARTESIAN_POINT('',(109.464256620327,236.250000000001,77.));
#590=CARTESIAN_POINT('',(110.064256620327,236.250000000001,77.));
#591=CARTESIAN_POINT('',(110.064256620327,236.250000000001,76.4));
#592=CARTESIAN_POINT('',(129.014256620328,236.250000000001,57.4500000000001));
#593=CARTESIAN_POINT('',(110.064256620327,236.250000000001,0.));
#594=CARTESIAN_POINT('Origin',(107.064256620328,1.15101240973051E-12,0.));
#595=CARTESIAN_POINT('',(104.664256620328,-236.249999999999,0.));
#596=CARTESIAN_POINT('',(104.064256620328,-236.249999999999,0.));
#597=CARTESIAN_POINT('',(104.664256620327,118.125000000001,0.));
#598=CARTESIAN_POINT('Origin',(104.364256620327,118.125000000001,0.3));
#599=CARTESIAN_POINT('',(104.064256620328,-236.249999999999,0.6));
#600=CARTESIAN_POINT('',(104.364256620328,-236.249999999999,0.300000000000027));
#601=CARTESIAN_POINT('',(104.064256620327,118.125000000001,0.6));
#602=CARTESIAN_POINT('Origin',(104.364256620327,118.125000000001,76.7));
#603=CARTESIAN_POINT('',(104.064256620328,-236.249999999999,76.4));
#604=CARTESIAN_POINT('',(104.664256620328,-236.249999999999,77.));
#605=CARTESIAN_POINT('',(85.1142566203276,-236.249999999999,57.4500000000001));
#606=CARTESIAN_POINT('',(104.664256620327,118.125000000001,77.));
#607=CARTESIAN_POINT('',(104.064256620327,118.125000000001,76.4));
#608=CARTESIAN_POINT('Origin',(107.064256620328,1.15101240973051E-12,77.));
#609=CARTESIAN_POINT('',(109.464256620328,-236.249999999999,77.));
#610=CARTESIAN_POINT('',(104.064256620328,-236.249999999999,77.));
#611=CARTESIAN_POINT('',(109.464256620328,-118.124999999999,77.));
#612=CARTESIAN_POINT('Origin',(109.764256620328,-118.124999999999,76.7));
#613=CARTESIAN_POINT('',(110.064256620328,-236.249999999999,76.4));
#614=CARTESIAN_POINT('',(127.514256620328,-236.249999999999,58.9500000000001));
#615=CARTESIAN_POINT('',(110.064256620328,-118.124999999999,76.4));
#616=CARTESIAN_POINT('Origin',(104.064256620327,236.250000000001,0.));
#617=CARTESIAN_POINT('',(104.064256620328,-236.249999999999,0.));
#618=CARTESIAN_POINT('Origin',(110.064256620328,-236.249999999999,0.));
#619=CARTESIAN_POINT('',(110.064256620328,-236.249999999999,0.));
#620=CARTESIAN_POINT('Origin',(104.064256620328,-236.249999999999,0.));
#621=UNCERTAINTY_MEASURE_WITH_UNIT(LENGTH_MEASURE(0.01),#625,
'DISTANCE_ACCURACY_VALUE',
'Maximum model space distance between geometric entities at asserted c
onnectivities');
#622=UNCERTAINTY_MEASURE_WITH_UNIT(LENGTH_MEASURE(0.01),#625,
'DISTANCE_ACCURACY_VALUE',
'Maximum model space distance between geometric entities at asserted c
onnectivities');
#623=(
GEOMETRIC_REPRESENTATION_CONTEXT(3)
GLOBAL_UNCERTAINTY_ASSIGNED_CONTEXT((#621))
GLOBAL_UNIT_ASSIGNED_CONTEXT((#625,#627,#628))
REPRESENTATION_CONTEXT('','3D')
);
#624=(
GEOMETRIC_REPRESENTATION_CONTEXT(3)
GLOBAL_UNCERTAINTY_ASSIGNED_CONTEXT((#622))
GLOBAL_UNIT_ASSIGNED_CONTEXT((#625,#627,#628))
REPRESENTATION_CONTEXT('','3D')
);
#625=(
LENGTH_UNIT()
NAMED_UNIT(*)
SI_UNIT(.MILLI.,.METRE.)
);
#626=(
LENGTH_UNIT()
NAMED_UNIT(*)
SI_UNIT(.CENTI.,.METRE.)
);
#627=(
NAMED_UNIT(*)
PLANE_ANGLE_UNIT()
SI_UNIT($,.RADIAN.)
);
#628=(
NAMED_UNIT(*)
SI_UNIT($,.STERADIAN.)
SOLID_ANGLE_UNIT()
);
#629=SHAPE_DEFINITION_REPRESENTATION(#630,#631);
#630=PRODUCT_DEFINITION_SHAPE('',$,#633);
#631=SHAPE_REPRESENTATION('',(#409),#623);
#632=DESIGN_CONTEXT('part definition',#637,'design');
#633=PRODUCT_DEFINITION('3D_200-2539-XX.sat','3D_200-2539-XX.sat',#634,
#632);
#634=PRODUCT_DEFINITION_FORMATION('',$,#639);
#635=PRODUCT_RELATED_PRODUCT_CATEGORY('3D_200-2539-XX.sat',
'3D_200-2539-XX.sat',(#639));
#636=APPLICATION_PROTOCOL_DEFINITION('international standard',
'ap203_configuration_controlled_3d_design_of_mechanical_parts_and_asse
mblies_mim_lf',2004,#637);
#637=APPLICATION_CONTEXT(
'Configuration Controlled 3D Design of Mechanical Parts and Assemblies');
#638=MECHANICAL_CONTEXT('part definition',#637,'mechanical');
#639=PRODUCT('3D_200-2539-XX.sat','3D_200-2539-XX.sat',$,(#638));
#640=PRESENTATION_STYLE_ASSIGNMENT((#642));
#641=PRESENTATION_STYLE_ASSIGNMENT((#643));
#642=SURFACE_STYLE_USAGE(.BOTH.,#648);
#643=SURFACE_STYLE_USAGE(.BOTH.,#649);
#644=SURFACE_STYLE_RENDERING_WITH_PROPERTIES($,#656,(#646));
#645=SURFACE_STYLE_RENDERING_WITH_PROPERTIES($,#657,(#647));
#646=SURFACE_STYLE_TRANSPARENT(0.);
#647=SURFACE_STYLE_TRANSPARENT(0.);
#648=SURFACE_SIDE_STYLE('',(#650,#644));
#649=SURFACE_SIDE_STYLE('',(#651,#645));
#650=SURFACE_STYLE_FILL_AREA(#652);
#651=SURFACE_STYLE_FILL_AREA(#653);
#652=FILL_AREA_STYLE('',(#654));
#653=FILL_AREA_STYLE('',(#655));
#654=FILL_AREA_STYLE_COLOUR('',#656);
#655=FILL_AREA_STYLE_COLOUR('',#657);
#656=COLOUR_RGB('',0.87843137254902,0.874509803921569,0.858823529411765);
#657=COLOUR_RGB('',0.466666666666667,0.301960784313725,0.172549019607843);
ENDSEC;
END-ISO-10303-21;
