ISO-10303-21;
HEADER;
/* Generated by software containing ST-Developer
 * from STEP Tools, Inc. (www.steptools.com) 
 */

FILE_DESCRIPTION(
/* description */ (''),
/* implementation_level */ '2;1');

FILE_NAME(
/* name */ 
'C:\\Users\\ps\\OneDrive - peka-metall AG\\Desktop\\3D WebDaten Pleno 
Maxi\\STEP\\3D_100-1201-XX_re_1 106321.stp',
/* time_stamp */ '2022-03-17T14:14:22+01:00',
/* author */ ('ps'),
/* organization */ (''),
/* preprocessor_version */ 'ST-DEVELOPER v18.1',
/* originating_system */ 'Autodesk Inventor 2021',
/* authorisation */ '');

FILE_SCHEMA (('CONFIG_CONTROL_DESIGN'));
ENDSEC;

DATA;
#10=MECHANICAL_DESIGN_GEOMETRIC_PRESENTATION_REPRESENTATION('',(#20,#21),
#349);
#11=CONTEXT_DEPENDENT_OVER_RIDING_STYLED_ITEM('',(#373),#360,#21,(#15));
#12=MAPPED_ITEM('',#13,#237);
#13=REPRESENTATION_MAP(#237,#359);
#14=ITEM_DEFINED_TRANSFORMATION($,$,#225,#236);
#15=(
REPRESENTATION_RELATIONSHIP($,$,#360,#359)
REPRESENTATION_RELATIONSHIP_WITH_TRANSFORMATION(#14)
SHAPE_REPRESENTATION_RELATIONSHIP()
);
#16=CONTEXT_DEPENDENT_SHAPE_REPRESENTATION(#15,#358);
#17=NEXT_ASSEMBLY_USAGE_OCCURRENCE(
'Holz Einlage H52 Pleno Liro 600 3_3 089004:1',
'Holz Einlage H52 Pleno Liro 600 3_3 089004:1',
'Holz Einlage H52 Pleno Liro 600 3_3 089004:1',#362,#363,
'Holz Einlage H52 Pleno Liro 600 3_3 089004:1');
#18=SHAPE_REPRESENTATION_RELATIONSHIP('SRR','None',#360,#19);
#19=ADVANCED_BREP_SHAPE_REPRESENTATION('',(#22),#348);
#20=STYLED_ITEM('',(#374),#22);
#21=STYLED_ITEM('',(#375),#12);
#22=MANIFOLD_SOLID_BREP('Volumenk\X\F6rper1',#199);
#23=FACE_OUTER_BOUND('',#33,.T.);
#24=FACE_OUTER_BOUND('',#34,.T.);
#25=FACE_OUTER_BOUND('',#35,.T.);
#26=FACE_OUTER_BOUND('',#36,.T.);
#27=FACE_OUTER_BOUND('',#37,.T.);
#28=FACE_OUTER_BOUND('',#38,.T.);
#29=FACE_OUTER_BOUND('',#39,.T.);
#30=FACE_OUTER_BOUND('',#40,.T.);
#31=FACE_OUTER_BOUND('',#41,.T.);
#32=FACE_OUTER_BOUND('',#42,.T.);
#33=EDGE_LOOP('',(#131,#132,#133,#134));
#34=EDGE_LOOP('',(#135,#136,#137,#138,#139,#140,#141,#142));
#35=EDGE_LOOP('',(#143,#144,#145,#146));
#36=EDGE_LOOP('',(#147,#148,#149,#150));
#37=EDGE_LOOP('',(#151,#152,#153,#154));
#38=EDGE_LOOP('',(#155,#156,#157,#158));
#39=EDGE_LOOP('',(#159,#160,#161,#162));
#40=EDGE_LOOP('',(#163,#164,#165,#166));
#41=EDGE_LOOP('',(#167,#168,#169,#170));
#42=EDGE_LOOP('',(#171,#172,#173,#174,#175,#176,#177,#178));
#43=LINE('',#295,#67);
#44=LINE('',#297,#68);
#45=LINE('',#299,#69);
#46=LINE('',#300,#70);
#47=LINE('',#303,#71);
#48=LINE('',#305,#72);
#49=LINE('',#307,#73);
#50=LINE('',#309,#74);
#51=LINE('',#311,#75);
#52=LINE('',#313,#76);
#53=LINE('',#314,#77);
#54=LINE('',#317,#78);
#55=LINE('',#318,#79);
#56=LINE('',#321,#80);
#57=LINE('',#322,#81);
#58=LINE('',#326,#82);
#59=LINE('',#327,#83);
#60=LINE('',#328,#84);
#61=LINE('',#331,#85);
#62=LINE('',#332,#86);
#63=LINE('',#335,#87);
#64=LINE('',#336,#88);
#65=LINE('',#338,#89);
#66=LINE('',#340,#90);
#67=VECTOR('',#244,10.);
#68=VECTOR('',#245,10.);
#69=VECTOR('',#246,10.);
#70=VECTOR('',#247,10.);
#71=VECTOR('',#250,10.);
#72=VECTOR('',#251,10.);
#73=VECTOR('',#252,10.);
#74=VECTOR('',#253,10.);
#75=VECTOR('',#254,10.);
#76=VECTOR('',#255,10.);
#77=VECTOR('',#256,10.);
#78=VECTOR('',#259,10.);
#79=VECTOR('',#260,10.);
#80=VECTOR('',#263,10.);
#81=VECTOR('',#264,10.);
#82=VECTOR('',#267,10.);
#83=VECTOR('',#268,10.);
#84=VECTOR('',#269,10.);
#85=VECTOR('',#272,10.);
#86=VECTOR('',#273,10.);
#87=VECTOR('',#276,10.);
#88=VECTOR('',#277,10.);
#89=VECTOR('',#280,10.);
#90=VECTOR('',#283,10.);
#91=VERTEX_POINT('',#293);
#92=VERTEX_POINT('',#294);
#93=VERTEX_POINT('',#296);
#94=VERTEX_POINT('',#298);
#95=VERTEX_POINT('',#302);
#96=VERTEX_POINT('',#304);
#97=VERTEX_POINT('',#306);
#98=VERTEX_POINT('',#308);
#99=VERTEX_POINT('',#310);
#100=VERTEX_POINT('',#312);
#101=VERTEX_POINT('',#316);
#102=VERTEX_POINT('',#320);
#103=VERTEX_POINT('',#324);
#104=VERTEX_POINT('',#325);
#105=VERTEX_POINT('',#330);
#106=VERTEX_POINT('',#334);
#107=EDGE_CURVE('',#91,#92,#43,.T.);
#108=EDGE_CURVE('',#92,#93,#44,.T.);
#109=EDGE_CURVE('',#93,#94,#45,.T.);
#110=EDGE_CURVE('',#94,#91,#46,.T.);
#111=EDGE_CURVE('',#91,#95,#47,.T.);
#112=EDGE_CURVE('',#96,#95,#48,.T.);
#113=EDGE_CURVE('',#96,#97,#49,.T.);
#114=EDGE_CURVE('',#98,#97,#50,.T.);
#115=EDGE_CURVE('',#99,#98,#51,.T.);
#116=EDGE_CURVE('',#100,#99,#52,.T.);
#117=EDGE_CURVE('',#92,#100,#53,.T.);
#118=EDGE_CURVE('',#101,#94,#54,.T.);
#119=EDGE_CURVE('',#95,#101,#55,.T.);
#120=EDGE_CURVE('',#101,#102,#56,.T.);
#121=EDGE_CURVE('',#102,#96,#57,.T.);
#122=EDGE_CURVE('',#103,#104,#58,.T.);
#123=EDGE_CURVE('',#104,#98,#59,.T.);
#124=EDGE_CURVE('',#97,#103,#60,.T.);
#125=EDGE_CURVE('',#104,#105,#61,.T.);
#126=EDGE_CURVE('',#99,#105,#62,.T.);
#127=EDGE_CURVE('',#105,#106,#63,.T.);
#128=EDGE_CURVE('',#106,#100,#64,.T.);
#129=EDGE_CURVE('',#102,#103,#65,.T.);
#130=EDGE_CURVE('',#93,#106,#66,.T.);
#131=ORIENTED_EDGE('',*,*,#107,.T.);
#132=ORIENTED_EDGE('',*,*,#108,.T.);
#133=ORIENTED_EDGE('',*,*,#109,.T.);
#134=ORIENTED_EDGE('',*,*,#110,.T.);
#135=ORIENTED_EDGE('',*,*,#107,.F.);
#136=ORIENTED_EDGE('',*,*,#111,.T.);
#137=ORIENTED_EDGE('',*,*,#112,.F.);
#138=ORIENTED_EDGE('',*,*,#113,.T.);
#139=ORIENTED_EDGE('',*,*,#114,.F.);
#140=ORIENTED_EDGE('',*,*,#115,.F.);
#141=ORIENTED_EDGE('',*,*,#116,.F.);
#142=ORIENTED_EDGE('',*,*,#117,.F.);
#143=ORIENTED_EDGE('',*,*,#110,.F.);
#144=ORIENTED_EDGE('',*,*,#118,.F.);
#145=ORIENTED_EDGE('',*,*,#119,.F.);
#146=ORIENTED_EDGE('',*,*,#111,.F.);
#147=ORIENTED_EDGE('',*,*,#120,.T.);
#148=ORIENTED_EDGE('',*,*,#121,.T.);
#149=ORIENTED_EDGE('',*,*,#112,.T.);
#150=ORIENTED_EDGE('',*,*,#119,.T.);
#151=ORIENTED_EDGE('',*,*,#122,.T.);
#152=ORIENTED_EDGE('',*,*,#123,.T.);
#153=ORIENTED_EDGE('',*,*,#114,.T.);
#154=ORIENTED_EDGE('',*,*,#124,.T.);
#155=ORIENTED_EDGE('',*,*,#123,.F.);
#156=ORIENTED_EDGE('',*,*,#125,.T.);
#157=ORIENTED_EDGE('',*,*,#126,.F.);
#158=ORIENTED_EDGE('',*,*,#115,.T.);
#159=ORIENTED_EDGE('',*,*,#116,.T.);
#160=ORIENTED_EDGE('',*,*,#126,.T.);
#161=ORIENTED_EDGE('',*,*,#127,.T.);
#162=ORIENTED_EDGE('',*,*,#128,.T.);
#163=ORIENTED_EDGE('',*,*,#121,.F.);
#164=ORIENTED_EDGE('',*,*,#129,.T.);
#165=ORIENTED_EDGE('',*,*,#124,.F.);
#166=ORIENTED_EDGE('',*,*,#113,.F.);
#167=ORIENTED_EDGE('',*,*,#108,.F.);
#168=ORIENTED_EDGE('',*,*,#117,.T.);
#169=ORIENTED_EDGE('',*,*,#128,.F.);
#170=ORIENTED_EDGE('',*,*,#130,.F.);
#171=ORIENTED_EDGE('',*,*,#109,.F.);
#172=ORIENTED_EDGE('',*,*,#130,.T.);
#173=ORIENTED_EDGE('',*,*,#127,.F.);
#174=ORIENTED_EDGE('',*,*,#125,.F.);
#175=ORIENTED_EDGE('',*,*,#122,.F.);
#176=ORIENTED_EDGE('',*,*,#129,.F.);
#177=ORIENTED_EDGE('',*,*,#120,.F.);
#178=ORIENTED_EDGE('',*,*,#118,.T.);
#179=PLANE('',#226);
#180=PLANE('',#227);
#181=PLANE('',#228);
#182=PLANE('',#229);
#183=PLANE('',#230);
#184=PLANE('',#231);
#185=PLANE('',#232);
#186=PLANE('',#233);
#187=PLANE('',#234);
#188=PLANE('',#235);
#189=ADVANCED_FACE('',(#23),#179,.T.);
#190=ADVANCED_FACE('',(#24),#180,.T.);
#191=ADVANCED_FACE('',(#25),#181,.F.);
#192=ADVANCED_FACE('',(#26),#182,.T.);
#193=ADVANCED_FACE('',(#27),#183,.T.);
#194=ADVANCED_FACE('',(#28),#184,.T.);
#195=ADVANCED_FACE('',(#29),#185,.T.);
#196=ADVANCED_FACE('',(#30),#186,.T.);
#197=ADVANCED_FACE('',(#31),#187,.T.);
#198=ADVANCED_FACE('',(#32),#188,.T.);
#199=CLOSED_SHELL('',(#189,#190,#191,#192,#193,#194,#195,#196,#197,#198));
#200=DERIVED_UNIT_ELEMENT(#202,1.);
#201=DERIVED_UNIT_ELEMENT(#351,-3.);
#202=(
MASS_UNIT()
NAMED_UNIT(*)
SI_UNIT($,.GRAM.)
);
#203=DERIVED_UNIT((#200,#201));
#204=MEASURE_REPRESENTATION_ITEM('density measure',
POSITIVE_RATIO_MEASURE(1.06),#203);
#205=PROPERTY_DEFINITION_REPRESENTATION(#210,#207);
#206=PROPERTY_DEFINITION_REPRESENTATION(#211,#208);
#207=REPRESENTATION('material name',(#209),#348);
#208=REPRESENTATION('density',(#204),#348);
#209=DESCRIPTIVE_REPRESENTATION_ITEM('Kst - ABS','Kst - ABS');
#210=PROPERTY_DEFINITION('material property','material name',#363);
#211=PROPERTY_DEFINITION('material property','density of part',#363);
#212=DATE_TIME_ROLE('creation_date');
#213=DATE_TIME_ROLE('creation_date');
#214=CC_DESIGN_DATE_AND_TIME_ASSIGNMENT(#216,#212,(#362));
#215=CC_DESIGN_DATE_AND_TIME_ASSIGNMENT(#217,#213,(#363));
#216=DATE_AND_TIME(#218,#220);
#217=DATE_AND_TIME(#219,#221);
#218=CALENDAR_DATE(2022,16,2);
#219=CALENDAR_DATE(2015,4,9);
#220=LOCAL_TIME(0,0,0.,#222);
#221=LOCAL_TIME(0,0,0.,#223);
#222=COORDINATED_UNIVERSAL_TIME_OFFSET(0,0,.BEHIND.);
#223=COORDINATED_UNIVERSAL_TIME_OFFSET(0,0,.BEHIND.);
#224=AXIS2_PLACEMENT_3D('placement',#290,#238,#239);
#225=AXIS2_PLACEMENT_3D('placement',#291,#240,#241);
#226=AXIS2_PLACEMENT_3D('',#292,#242,#243);
#227=AXIS2_PLACEMENT_3D('',#301,#248,#249);
#228=AXIS2_PLACEMENT_3D('',#315,#257,#258);
#229=AXIS2_PLACEMENT_3D('',#319,#261,#262);
#230=AXIS2_PLACEMENT_3D('',#323,#265,#266);
#231=AXIS2_PLACEMENT_3D('',#329,#270,#271);
#232=AXIS2_PLACEMENT_3D('',#333,#274,#275);
#233=AXIS2_PLACEMENT_3D('',#337,#278,#279);
#234=AXIS2_PLACEMENT_3D('',#339,#281,#282);
#235=AXIS2_PLACEMENT_3D('',#341,#284,#285);
#236=AXIS2_PLACEMENT_3D('',#342,#286,#287);
#237=AXIS2_PLACEMENT_3D('',#343,#288,#289);
#238=DIRECTION('axis',(0.,0.,1.));
#239=DIRECTION('refdir',(1.,0.,0.));
#240=DIRECTION('axis',(0.,0.,1.));
#241=DIRECTION('refdir',(1.,0.,0.));
#242=DIRECTION('center_axis',(0.707106781186548,1.29656956429769E-16,-0.707106781186547));
#243=DIRECTION('ref_axis',(-0.707106781186547,0.,-0.707106781186548));
#244=DIRECTION('',(0.707106781186547,0.,0.707106781186548));
#245=DIRECTION('',(1.83362626238996E-16,-1.,0.));
#246=DIRECTION('',(-0.707106781186547,0.,-0.707106781186548));
#247=DIRECTION('',(-1.83362626238996E-16,1.,0.));
#248=DIRECTION('center_axis',(0.,1.,0.));
#249=DIRECTION('ref_axis',(-1.,0.,0.));
#250=DIRECTION('',(-1.,0.,0.));
#251=DIRECTION('',(0.707106781186548,0.,-0.707106781186548));
#252=DIRECTION('',(0.,0.,1.));
#253=DIRECTION('',(-0.70710678118655,0.,-0.707106781186545));
#254=DIRECTION('',(-1.,0.,0.));
#255=DIRECTION('',(-0.70710678118655,0.,0.707106781186545));
#256=DIRECTION('',(0.,0.,1.));
#257=DIRECTION('center_axis',(0.,0.,1.));
#258=DIRECTION('ref_axis',(1.,0.,0.));
#259=DIRECTION('',(1.,0.,0.));
#260=DIRECTION('',(3.05185740932028E-16,-1.,0.));
#261=DIRECTION('center_axis',(-0.707106781186548,-2.15798906934478E-16,
-0.707106781186548));
#262=DIRECTION('ref_axis',(-0.707106781186548,0.,0.707106781186548));
#263=DIRECTION('',(-0.707106781186548,0.,0.707106781186548));
#264=DIRECTION('',(-3.05185740932028E-16,1.,0.));
#265=DIRECTION('center_axis',(-0.707106781186545,-2.15798906934477E-16,
0.70710678118655));
#266=DIRECTION('ref_axis',(0.70710678118655,0.,0.707106781186545));
#267=DIRECTION('',(0.70710678118655,0.,0.707106781186545));
#268=DIRECTION('',(-3.05185740932028E-16,1.,0.));
#269=DIRECTION('',(3.05185740932028E-16,-1.,0.));
#270=DIRECTION('center_axis',(0.,0.,1.));
#271=DIRECTION('ref_axis',(1.,0.,0.));
#272=DIRECTION('',(1.,0.,0.));
#273=DIRECTION('',(1.83362626238996E-16,-1.,0.));
#274=DIRECTION('center_axis',(0.707106781186545,1.29656956429768E-16,0.70710678118655));
#275=DIRECTION('ref_axis',(0.70710678118655,0.,-0.707106781186545));
#276=DIRECTION('',(0.70710678118655,0.,-0.707106781186545));
#277=DIRECTION('',(-1.83362626238996E-16,1.,0.));
#278=DIRECTION('center_axis',(-1.,-3.05185740932028E-16,0.));
#279=DIRECTION('ref_axis',(3.05185740932028E-16,-1.,0.));
#280=DIRECTION('',(0.,0.,1.));
#281=DIRECTION('center_axis',(1.,1.83362626238996E-16,0.));
#282=DIRECTION('ref_axis',(-1.83362626238996E-16,1.,0.));
#283=DIRECTION('',(0.,0.,1.));
#284=DIRECTION('center_axis',(0.,-1.,0.));
#285=DIRECTION('ref_axis',(1.,0.,0.));
#286=DIRECTION('',(0.,0.,1.));
#287=DIRECTION('',(-1.83362626238996E-16,-1.,0.));
#288=DIRECTION('center_axis',(0.,0.,1.));
#289=DIRECTION('ref_axis',(1.,0.,0.));
#290=CARTESIAN_POINT('',(0.,0.,0.));
#291=CARTESIAN_POINT('',(0.,0.,0.));
#292=CARTESIAN_POINT('Origin',(2.70000000000001,-110.499999999999,0.3));
#293=CARTESIAN_POINT('',(2.39999999999995,221.000000000001,0.));
#294=CARTESIAN_POINT('',(2.99999999999995,221.000000000001,0.6));
#295=CARTESIAN_POINT('',(2.69999999999996,221.000000000001,0.300000000000015));
#296=CARTESIAN_POINT('',(3.00000000000003,-220.999999999999,0.6));
#297=CARTESIAN_POINT('',(3.00000000000001,-110.499999999999,0.6));
#298=CARTESIAN_POINT('',(2.40000000000003,-220.999999999999,0.));
#299=CARTESIAN_POINT('',(1.20000000000004,-220.999999999999,-1.19999999999999));
#300=CARTESIAN_POINT('',(2.40000000000001,-110.499999999999,0.));
#301=CARTESIAN_POINT('Origin',(2.99999999999995,221.000000000001,0.));
#302=CARTESIAN_POINT('',(-2.40000000000005,221.000000000001,0.));
#303=CARTESIAN_POINT('',(2.99999999999995,221.000000000001,0.));
#304=CARTESIAN_POINT('',(-3.00000000000006,221.000000000001,0.6));
#305=CARTESIAN_POINT('',(-1.20000000000005,221.000000000001,-1.20000000000001));
#306=CARTESIAN_POINT('',(-3.00000000000006,221.000000000001,51.4));
#307=CARTESIAN_POINT('',(-3.00000000000006,221.000000000001,0.));
#308=CARTESIAN_POINT('',(-2.40000000000005,221.000000000001,52.));
#309=CARTESIAN_POINT('',(-14.2,221.000000000001,40.2000000000001));
#310=CARTESIAN_POINT('',(2.39999999999995,221.000000000001,52.));
#311=CARTESIAN_POINT('',(2.99999999999995,221.000000000001,52.));
#312=CARTESIAN_POINT('',(2.99999999999995,221.000000000001,51.4));
#313=CARTESIAN_POINT('',(15.7,221.000000000001,38.7000000000001));
#314=CARTESIAN_POINT('',(2.99999999999995,221.000000000001,0.));
#315=CARTESIAN_POINT('Origin',(-1.18952466924124E-15,1.0788988750018E-12,
0.));
#316=CARTESIAN_POINT('',(-2.39999999999992,-220.999999999999,0.));
#317=CARTESIAN_POINT('',(-2.99999999999992,-220.999999999999,0.));
#318=CARTESIAN_POINT('',(-2.40000000000002,110.500000000001,0.));
#319=CARTESIAN_POINT('Origin',(-2.70000000000002,110.500000000001,0.3));
#320=CARTESIAN_POINT('',(-2.99999999999992,-220.999999999999,0.6));
#321=CARTESIAN_POINT('',(-2.69999999999995,-220.999999999999,0.300000000000025));
#322=CARTESIAN_POINT('',(-3.00000000000002,110.500000000001,0.6));
#323=CARTESIAN_POINT('Origin',(-2.70000000000002,110.500000000001,51.7));
#324=CARTESIAN_POINT('',(-2.99999999999992,-220.999999999999,51.4));
#325=CARTESIAN_POINT('',(-2.39999999999992,-220.999999999999,52.));
#326=CARTESIAN_POINT('',(-15.6999999999999,-220.999999999999,38.7000000000001));
#327=CARTESIAN_POINT('',(-2.40000000000002,110.500000000001,52.));
#328=CARTESIAN_POINT('',(-3.00000000000002,110.500000000001,51.4));
#329=CARTESIAN_POINT('Origin',(-1.18952466924124E-15,1.0788988750018E-12,
52.));
#330=CARTESIAN_POINT('',(2.40000000000003,-220.999999999999,52.));
#331=CARTESIAN_POINT('',(-2.99999999999992,-220.999999999999,52.));
#332=CARTESIAN_POINT('',(2.40000000000001,-110.499999999999,52.));
#333=CARTESIAN_POINT('Origin',(2.70000000000001,-110.499999999999,51.7));
#334=CARTESIAN_POINT('',(3.00000000000003,-220.999999999999,51.4));
#335=CARTESIAN_POINT('',(14.2,-220.999999999999,40.2000000000001));
#336=CARTESIAN_POINT('',(3.00000000000001,-110.499999999999,51.4));
#337=CARTESIAN_POINT('Origin',(-3.00000000000006,221.000000000001,0.));
#338=CARTESIAN_POINT('',(-2.99999999999992,-220.999999999999,0.));
#339=CARTESIAN_POINT('Origin',(3.00000000000003,-220.999999999999,0.));
#340=CARTESIAN_POINT('',(3.00000000000003,-220.999999999999,0.));
#341=CARTESIAN_POINT('Origin',(-2.99999999999992,-220.999999999999,0.));
#342=CARTESIAN_POINT('',(-329.000000000001,17.,101.1));
#343=CARTESIAN_POINT('Origin',(0.,0.,0.));
#344=UNCERTAINTY_MEASURE_WITH_UNIT(LENGTH_MEASURE(0.01),#350,
'DISTANCE_ACCURACY_VALUE',
'Maximum model space distance between geometric entities at asserted c
onnectivities');
#345=UNCERTAINTY_MEASURE_WITH_UNIT(LENGTH_MEASURE(0.01),#350,
'DISTANCE_ACCURACY_VALUE',
'Maximum model space distance between geometric entities at asserted c
onnectivities');
#346=UNCERTAINTY_MEASURE_WITH_UNIT(LENGTH_MEASURE(0.01),#350,
'DISTANCE_ACCURACY_VALUE',
'Maximum model space distance between geometric entities at asserted c
onnectivities');
#347=(
GEOMETRIC_REPRESENTATION_CONTEXT(3)
GLOBAL_UNCERTAINTY_ASSIGNED_CONTEXT((#344))
GLOBAL_UNIT_ASSIGNED_CONTEXT((#350,#352,#353))
REPRESENTATION_CONTEXT('','3D')
);
#348=(
GEOMETRIC_REPRESENTATION_CONTEXT(3)
GLOBAL_UNCERTAINTY_ASSIGNED_CONTEXT((#345))
GLOBAL_UNIT_ASSIGNED_CONTEXT((#350,#352,#353))
REPRESENTATION_CONTEXT('','3D')
);
#349=(
GEOMETRIC_REPRESENTATION_CONTEXT(3)
GLOBAL_UNCERTAINTY_ASSIGNED_CONTEXT((#346))
GLOBAL_UNIT_ASSIGNED_CONTEXT((#350,#352,#353))
REPRESENTATION_CONTEXT('','3D')
);
#350=(
LENGTH_UNIT()
NAMED_UNIT(*)
SI_UNIT(.MILLI.,.METRE.)
);
#351=(
LENGTH_UNIT()
NAMED_UNIT(*)
SI_UNIT(.CENTI.,.METRE.)
);
#352=(
NAMED_UNIT(*)
PLANE_ANGLE_UNIT()
SI_UNIT($,.RADIAN.)
);
#353=(
NAMED_UNIT(*)
SI_UNIT($,.STERADIAN.)
SOLID_ANGLE_UNIT()
);
#354=SHAPE_DEFINITION_REPRESENTATION(#356,#359);
#355=SHAPE_DEFINITION_REPRESENTATION(#357,#360);
#356=PRODUCT_DEFINITION_SHAPE('',$,#362);
#357=PRODUCT_DEFINITION_SHAPE('',$,#363);
#358=PRODUCT_DEFINITION_SHAPE($,$,#17);
#359=SHAPE_REPRESENTATION('',(#224,#236),#347);
#360=SHAPE_REPRESENTATION('',(#225),#348);
#361=DESIGN_CONTEXT('part definition',#369,'design');
#362=PRODUCT_DEFINITION('Holz Einlage 3/3 B600 H52 re 1er',
'3D_100-1201-XX_re_1 106321',#364,#361);
#363=PRODUCT_DEFINITION('Holz Einlage H52 Pleno Liro 600 3/3',
'Holz Einlage H52 Pleno Liro 600 3_3 089004',#365,#361);
#364=PRODUCT_DEFINITION_FORMATION('',$,#371);
#365=PRODUCT_DEFINITION_FORMATION('',$,#372);
#366=PRODUCT_RELATED_PRODUCT_CATEGORY('3D_100-1201-XX_re_1 106321',
'3D_100-1201-XX_re_1 106321',(#371));
#367=PRODUCT_RELATED_PRODUCT_CATEGORY(
'Holz Einlage H52 Pleno Liro 600 3_3 089004',
'Holz Einlage H52 Pleno Liro 600 3_3 089004',(#372));
#368=APPLICATION_PROTOCOL_DEFINITION('international standard',
'ap203_configuration_controlled_3d_design_of_mechanical_parts_and_asse
mblies_mim_lf',2004,#369);
#369=APPLICATION_CONTEXT(
'Configuration Controlled 3D Design of Mechanical Parts and Assemblies');
#370=MECHANICAL_CONTEXT('part definition',#369,'mechanical');
#371=PRODUCT('Holz Einlage 3/3 B600 H52 re 1er',
'3D_100-1201-XX_re_1 106321',$,(#370));
#372=PRODUCT('Holz Einlage H52 Pleno Liro 600 3/3',
'Holz Einlage H52 Pleno Liro 600 3_3 089004',$,(#370));
#373=PRESENTATION_STYLE_ASSIGNMENT((#376));
#374=PRESENTATION_STYLE_ASSIGNMENT((#377));
#375=PRESENTATION_STYLE_ASSIGNMENT((NULL_STYLE(.NULL.)));
#376=SURFACE_STYLE_USAGE(.BOTH.,#380);
#377=SURFACE_STYLE_USAGE(.BOTH.,#381);
#378=SURFACE_STYLE_RENDERING_WITH_PROPERTIES($,#388,(#379));
#379=SURFACE_STYLE_TRANSPARENT(0.);
#380=SURFACE_SIDE_STYLE('',(#382,#378));
#381=SURFACE_SIDE_STYLE('',(#383));
#382=SURFACE_STYLE_FILL_AREA(#384);
#383=SURFACE_STYLE_FILL_AREA(#385);
#384=FILL_AREA_STYLE('',(#386));
#385=FILL_AREA_STYLE('',(#387));
#386=FILL_AREA_STYLE_COLOUR('',#388);
#387=FILL_AREA_STYLE_COLOUR('',#389);
#388=COLOUR_RGB('',0.580392156862745,0.650980392156863,0.72156862745098);
#389=COLOUR_RGB('',0.466666666666667,0.305882352941176,0.172549019607843);
ENDSEC;
END-ISO-10303-21;
