ISO-10303-21;
HEADER;
/* Generated by software containing ST-Developer
 * from STEP Tools, Inc. (www.steptools.com) 
 */

FILE_DESCRIPTION(
/* description */ (''),
/* implementation_level */ '2;1');

FILE_NAME(
/* name */ 
'C:\\Users\\ps\\OneDrive - peka-metall AG\\Desktop\\3D WebDaten Pleno 
Maxi\\STEP\\3D_100-1202-XX_re_6 106331.stp',
/* time_stamp */ '2022-03-17T14:13:46+01:00',
/* author */ ('ps'),
/* organization */ (''),
/* preprocessor_version */ 'ST-DEVELOPER v18.1',
/* originating_system */ 'Autodesk Inventor 2021',
/* authorisation */ '');

FILE_SCHEMA (('CONFIG_CONTROL_DESIGN'));
ENDSEC;

DATA;
#10=MECHANICAL_DESIGN_GEOMETRIC_PRESENTATION_REPRESENTATION('',(#45,#46),
#394);
#11=CONTEXT_DEPENDENT_OVER_RIDING_STYLED_ITEM('',(#423),#410,#46,(#28));
#12=CONTEXT_DEPENDENT_OVER_RIDING_STYLED_ITEM('',(#423),#410,#46,(#29));
#13=CONTEXT_DEPENDENT_OVER_RIDING_STYLED_ITEM('',(#423),#410,#46,(#26));
#14=CONTEXT_DEPENDENT_OVER_RIDING_STYLED_ITEM('',(#423),#410,#46,(#25));
#15=CONTEXT_DEPENDENT_OVER_RIDING_STYLED_ITEM('',(#423),#410,#46,(#30));
#16=CONTEXT_DEPENDENT_OVER_RIDING_STYLED_ITEM('',(#423),#410,#46,(#27));
#17=MAPPED_ITEM('',#18,#267);
#18=REPRESENTATION_MAP(#267,#409);
#19=ITEM_DEFINED_TRANSFORMATION($,$,#250,#261);
#20=ITEM_DEFINED_TRANSFORMATION($,$,#250,#262);
#21=ITEM_DEFINED_TRANSFORMATION($,$,#250,#263);
#22=ITEM_DEFINED_TRANSFORMATION($,$,#250,#264);
#23=ITEM_DEFINED_TRANSFORMATION($,$,#250,#265);
#24=ITEM_DEFINED_TRANSFORMATION($,$,#250,#266);
#25=(
REPRESENTATION_RELATIONSHIP($,$,#410,#409)
REPRESENTATION_RELATIONSHIP_WITH_TRANSFORMATION(#19)
SHAPE_REPRESENTATION_RELATIONSHIP()
);
#26=(
REPRESENTATION_RELATIONSHIP($,$,#410,#409)
REPRESENTATION_RELATIONSHIP_WITH_TRANSFORMATION(#20)
SHAPE_REPRESENTATION_RELATIONSHIP()
);
#27=(
REPRESENTATION_RELATIONSHIP($,$,#410,#409)
REPRESENTATION_RELATIONSHIP_WITH_TRANSFORMATION(#21)
SHAPE_REPRESENTATION_RELATIONSHIP()
);
#28=(
REPRESENTATION_RELATIONSHIP($,$,#410,#409)
REPRESENTATION_RELATIONSHIP_WITH_TRANSFORMATION(#22)
SHAPE_REPRESENTATION_RELATIONSHIP()
);
#29=(
REPRESENTATION_RELATIONSHIP($,$,#410,#409)
REPRESENTATION_RELATIONSHIP_WITH_TRANSFORMATION(#23)
SHAPE_REPRESENTATION_RELATIONSHIP()
);
#30=(
REPRESENTATION_RELATIONSHIP($,$,#410,#409)
REPRESENTATION_RELATIONSHIP_WITH_TRANSFORMATION(#24)
SHAPE_REPRESENTATION_RELATIONSHIP()
);
#31=CONTEXT_DEPENDENT_SHAPE_REPRESENTATION(#25,#403);
#32=CONTEXT_DEPENDENT_SHAPE_REPRESENTATION(#26,#404);
#33=CONTEXT_DEPENDENT_SHAPE_REPRESENTATION(#27,#405);
#34=CONTEXT_DEPENDENT_SHAPE_REPRESENTATION(#28,#406);
#35=CONTEXT_DEPENDENT_SHAPE_REPRESENTATION(#29,#407);
#36=CONTEXT_DEPENDENT_SHAPE_REPRESENTATION(#30,#408);
#37=NEXT_ASSEMBLY_USAGE_OCCURRENCE(
'Holz Einlage H52 Pleno Liro 600 3_3 089004:1',
'Holz Einlage H52 Pleno Liro 600 3_3 089004:1',
'Holz Einlage H52 Pleno Liro 600 3_3 089004:1',#412,#413,
'Holz Einlage H52 Pleno Liro 600 3_3 089004:1');
#38=NEXT_ASSEMBLY_USAGE_OCCURRENCE(
'Holz Einlage H52 Pleno Liro 600 3_3 089004:2',
'Holz Einlage H52 Pleno Liro 600 3_3 089004:2',
'Holz Einlage H52 Pleno Liro 600 3_3 089004:2',#412,#413,
'Holz Einlage H52 Pleno Liro 600 3_3 089004:2');
#39=NEXT_ASSEMBLY_USAGE_OCCURRENCE(
'Holz Einlage H52 Pleno Liro 600 3_3 089004:3',
'Holz Einlage H52 Pleno Liro 600 3_3 089004:3',
'Holz Einlage H52 Pleno Liro 600 3_3 089004:3',#412,#413,
'Holz Einlage H52 Pleno Liro 600 3_3 089004:3');
#40=NEXT_ASSEMBLY_USAGE_OCCURRENCE(
'Holz Einlage H52 Pleno Liro 600 3_3 089004:4',
'Holz Einlage H52 Pleno Liro 600 3_3 089004:4',
'Holz Einlage H52 Pleno Liro 600 3_3 089004:4',#412,#413,
'Holz Einlage H52 Pleno Liro 600 3_3 089004:4');
#41=NEXT_ASSEMBLY_USAGE_OCCURRENCE(
'Holz Einlage H52 Pleno Liro 600 3_3 089004:5',
'Holz Einlage H52 Pleno Liro 600 3_3 089004:5',
'Holz Einlage H52 Pleno Liro 600 3_3 089004:5',#412,#413,
'Holz Einlage H52 Pleno Liro 600 3_3 089004:5');
#42=NEXT_ASSEMBLY_USAGE_OCCURRENCE(
'Holz Einlage H52 Pleno Liro 600 3_3 089004:6',
'Holz Einlage H52 Pleno Liro 600 3_3 089004:6',
'Holz Einlage H52 Pleno Liro 600 3_3 089004:6',#412,#413,
'Holz Einlage H52 Pleno Liro 600 3_3 089004:6');
#43=SHAPE_REPRESENTATION_RELATIONSHIP('SRR','None',#410,#44);
#44=ADVANCED_BREP_SHAPE_REPRESENTATION('',(#47),#393);
#45=STYLED_ITEM('',(#424),#47);
#46=STYLED_ITEM('',(#425),#17);
#47=MANIFOLD_SOLID_BREP('Volumenk\X\F6rper1',#224);
#48=FACE_OUTER_BOUND('',#58,.T.);
#49=FACE_OUTER_BOUND('',#59,.T.);
#50=FACE_OUTER_BOUND('',#60,.T.);
#51=FACE_OUTER_BOUND('',#61,.T.);
#52=FACE_OUTER_BOUND('',#62,.T.);
#53=FACE_OUTER_BOUND('',#63,.T.);
#54=FACE_OUTER_BOUND('',#64,.T.);
#55=FACE_OUTER_BOUND('',#65,.T.);
#56=FACE_OUTER_BOUND('',#66,.T.);
#57=FACE_OUTER_BOUND('',#67,.T.);
#58=EDGE_LOOP('',(#156,#157,#158,#159));
#59=EDGE_LOOP('',(#160,#161,#162,#163,#164,#165,#166,#167));
#60=EDGE_LOOP('',(#168,#169,#170,#171));
#61=EDGE_LOOP('',(#172,#173,#174,#175));
#62=EDGE_LOOP('',(#176,#177,#178,#179));
#63=EDGE_LOOP('',(#180,#181,#182,#183));
#64=EDGE_LOOP('',(#184,#185,#186,#187));
#65=EDGE_LOOP('',(#188,#189,#190,#191));
#66=EDGE_LOOP('',(#192,#193,#194,#195));
#67=EDGE_LOOP('',(#196,#197,#198,#199,#200,#201,#202,#203));
#68=LINE('',#335,#92);
#69=LINE('',#337,#93);
#70=LINE('',#339,#94);
#71=LINE('',#340,#95);
#72=LINE('',#343,#96);
#73=LINE('',#345,#97);
#74=LINE('',#347,#98);
#75=LINE('',#349,#99);
#76=LINE('',#351,#100);
#77=LINE('',#353,#101);
#78=LINE('',#354,#102);
#79=LINE('',#357,#103);
#80=LINE('',#358,#104);
#81=LINE('',#361,#105);
#82=LINE('',#362,#106);
#83=LINE('',#366,#107);
#84=LINE('',#367,#108);
#85=LINE('',#368,#109);
#86=LINE('',#371,#110);
#87=LINE('',#372,#111);
#88=LINE('',#375,#112);
#89=LINE('',#376,#113);
#90=LINE('',#378,#114);
#91=LINE('',#380,#115);
#92=VECTOR('',#274,10.);
#93=VECTOR('',#275,10.);
#94=VECTOR('',#276,10.);
#95=VECTOR('',#277,10.);
#96=VECTOR('',#280,10.);
#97=VECTOR('',#281,10.);
#98=VECTOR('',#282,10.);
#99=VECTOR('',#283,10.);
#100=VECTOR('',#284,10.);
#101=VECTOR('',#285,10.);
#102=VECTOR('',#286,10.);
#103=VECTOR('',#289,10.);
#104=VECTOR('',#290,10.);
#105=VECTOR('',#293,10.);
#106=VECTOR('',#294,10.);
#107=VECTOR('',#297,10.);
#108=VECTOR('',#298,10.);
#109=VECTOR('',#299,10.);
#110=VECTOR('',#302,10.);
#111=VECTOR('',#303,10.);
#112=VECTOR('',#306,10.);
#113=VECTOR('',#307,10.);
#114=VECTOR('',#310,10.);
#115=VECTOR('',#313,10.);
#116=VERTEX_POINT('',#333);
#117=VERTEX_POINT('',#334);
#118=VERTEX_POINT('',#336);
#119=VERTEX_POINT('',#338);
#120=VERTEX_POINT('',#342);
#121=VERTEX_POINT('',#344);
#122=VERTEX_POINT('',#346);
#123=VERTEX_POINT('',#348);
#124=VERTEX_POINT('',#350);
#125=VERTEX_POINT('',#352);
#126=VERTEX_POINT('',#356);
#127=VERTEX_POINT('',#360);
#128=VERTEX_POINT('',#364);
#129=VERTEX_POINT('',#365);
#130=VERTEX_POINT('',#370);
#131=VERTEX_POINT('',#374);
#132=EDGE_CURVE('',#116,#117,#68,.T.);
#133=EDGE_CURVE('',#117,#118,#69,.T.);
#134=EDGE_CURVE('',#118,#119,#70,.T.);
#135=EDGE_CURVE('',#119,#116,#71,.T.);
#136=EDGE_CURVE('',#116,#120,#72,.T.);
#137=EDGE_CURVE('',#121,#120,#73,.T.);
#138=EDGE_CURVE('',#121,#122,#74,.T.);
#139=EDGE_CURVE('',#123,#122,#75,.T.);
#140=EDGE_CURVE('',#124,#123,#76,.T.);
#141=EDGE_CURVE('',#125,#124,#77,.T.);
#142=EDGE_CURVE('',#117,#125,#78,.T.);
#143=EDGE_CURVE('',#126,#119,#79,.T.);
#144=EDGE_CURVE('',#120,#126,#80,.T.);
#145=EDGE_CURVE('',#126,#127,#81,.T.);
#146=EDGE_CURVE('',#127,#121,#82,.T.);
#147=EDGE_CURVE('',#128,#129,#83,.T.);
#148=EDGE_CURVE('',#129,#123,#84,.T.);
#149=EDGE_CURVE('',#122,#128,#85,.T.);
#150=EDGE_CURVE('',#129,#130,#86,.T.);
#151=EDGE_CURVE('',#124,#130,#87,.T.);
#152=EDGE_CURVE('',#130,#131,#88,.T.);
#153=EDGE_CURVE('',#131,#125,#89,.T.);
#154=EDGE_CURVE('',#127,#128,#90,.T.);
#155=EDGE_CURVE('',#118,#131,#91,.T.);
#156=ORIENTED_EDGE('',*,*,#132,.T.);
#157=ORIENTED_EDGE('',*,*,#133,.T.);
#158=ORIENTED_EDGE('',*,*,#134,.T.);
#159=ORIENTED_EDGE('',*,*,#135,.T.);
#160=ORIENTED_EDGE('',*,*,#132,.F.);
#161=ORIENTED_EDGE('',*,*,#136,.T.);
#162=ORIENTED_EDGE('',*,*,#137,.F.);
#163=ORIENTED_EDGE('',*,*,#138,.T.);
#164=ORIENTED_EDGE('',*,*,#139,.F.);
#165=ORIENTED_EDGE('',*,*,#140,.F.);
#166=ORIENTED_EDGE('',*,*,#141,.F.);
#167=ORIENTED_EDGE('',*,*,#142,.F.);
#168=ORIENTED_EDGE('',*,*,#135,.F.);
#169=ORIENTED_EDGE('',*,*,#143,.F.);
#170=ORIENTED_EDGE('',*,*,#144,.F.);
#171=ORIENTED_EDGE('',*,*,#136,.F.);
#172=ORIENTED_EDGE('',*,*,#145,.T.);
#173=ORIENTED_EDGE('',*,*,#146,.T.);
#174=ORIENTED_EDGE('',*,*,#137,.T.);
#175=ORIENTED_EDGE('',*,*,#144,.T.);
#176=ORIENTED_EDGE('',*,*,#147,.T.);
#177=ORIENTED_EDGE('',*,*,#148,.T.);
#178=ORIENTED_EDGE('',*,*,#139,.T.);
#179=ORIENTED_EDGE('',*,*,#149,.T.);
#180=ORIENTED_EDGE('',*,*,#148,.F.);
#181=ORIENTED_EDGE('',*,*,#150,.T.);
#182=ORIENTED_EDGE('',*,*,#151,.F.);
#183=ORIENTED_EDGE('',*,*,#140,.T.);
#184=ORIENTED_EDGE('',*,*,#141,.T.);
#185=ORIENTED_EDGE('',*,*,#151,.T.);
#186=ORIENTED_EDGE('',*,*,#152,.T.);
#187=ORIENTED_EDGE('',*,*,#153,.T.);
#188=ORIENTED_EDGE('',*,*,#146,.F.);
#189=ORIENTED_EDGE('',*,*,#154,.T.);
#190=ORIENTED_EDGE('',*,*,#149,.F.);
#191=ORIENTED_EDGE('',*,*,#138,.F.);
#192=ORIENTED_EDGE('',*,*,#133,.F.);
#193=ORIENTED_EDGE('',*,*,#142,.T.);
#194=ORIENTED_EDGE('',*,*,#153,.F.);
#195=ORIENTED_EDGE('',*,*,#155,.F.);
#196=ORIENTED_EDGE('',*,*,#134,.F.);
#197=ORIENTED_EDGE('',*,*,#155,.T.);
#198=ORIENTED_EDGE('',*,*,#152,.F.);
#199=ORIENTED_EDGE('',*,*,#150,.F.);
#200=ORIENTED_EDGE('',*,*,#147,.F.);
#201=ORIENTED_EDGE('',*,*,#154,.F.);
#202=ORIENTED_EDGE('',*,*,#145,.F.);
#203=ORIENTED_EDGE('',*,*,#143,.T.);
#204=PLANE('',#251);
#205=PLANE('',#252);
#206=PLANE('',#253);
#207=PLANE('',#254);
#208=PLANE('',#255);
#209=PLANE('',#256);
#210=PLANE('',#257);
#211=PLANE('',#258);
#212=PLANE('',#259);
#213=PLANE('',#260);
#214=ADVANCED_FACE('',(#48),#204,.T.);
#215=ADVANCED_FACE('',(#49),#205,.T.);
#216=ADVANCED_FACE('',(#50),#206,.F.);
#217=ADVANCED_FACE('',(#51),#207,.T.);
#218=ADVANCED_FACE('',(#52),#208,.T.);
#219=ADVANCED_FACE('',(#53),#209,.T.);
#220=ADVANCED_FACE('',(#54),#210,.T.);
#221=ADVANCED_FACE('',(#55),#211,.T.);
#222=ADVANCED_FACE('',(#56),#212,.T.);
#223=ADVANCED_FACE('',(#57),#213,.T.);
#224=CLOSED_SHELL('',(#214,#215,#216,#217,#218,#219,#220,#221,#222,#223));
#225=DERIVED_UNIT_ELEMENT(#227,1.);
#226=DERIVED_UNIT_ELEMENT(#396,-3.);
#227=(
MASS_UNIT()
NAMED_UNIT(*)
SI_UNIT($,.GRAM.)
);
#228=DERIVED_UNIT((#225,#226));
#229=MEASURE_REPRESENTATION_ITEM('density measure',
POSITIVE_RATIO_MEASURE(1.06),#228);
#230=PROPERTY_DEFINITION_REPRESENTATION(#235,#232);
#231=PROPERTY_DEFINITION_REPRESENTATION(#236,#233);
#232=REPRESENTATION('material name',(#234),#393);
#233=REPRESENTATION('density',(#229),#393);
#234=DESCRIPTIVE_REPRESENTATION_ITEM('Kst - ABS','Kst - ABS');
#235=PROPERTY_DEFINITION('material property','material name',#413);
#236=PROPERTY_DEFINITION('material property','density of part',#413);
#237=DATE_TIME_ROLE('creation_date');
#238=DATE_TIME_ROLE('creation_date');
#239=CC_DESIGN_DATE_AND_TIME_ASSIGNMENT(#241,#237,(#412));
#240=CC_DESIGN_DATE_AND_TIME_ASSIGNMENT(#242,#238,(#413));
#241=DATE_AND_TIME(#243,#245);
#242=DATE_AND_TIME(#244,#246);
#243=CALENDAR_DATE(2022,16,2);
#244=CALENDAR_DATE(2015,4,9);
#245=LOCAL_TIME(0,0,0.,#247);
#246=LOCAL_TIME(0,0,0.,#248);
#247=COORDINATED_UNIVERSAL_TIME_OFFSET(0,0,.BEHIND.);
#248=COORDINATED_UNIVERSAL_TIME_OFFSET(0,0,.BEHIND.);
#249=AXIS2_PLACEMENT_3D('placement',#330,#268,#269);
#250=AXIS2_PLACEMENT_3D('placement',#331,#270,#271);
#251=AXIS2_PLACEMENT_3D('',#332,#272,#273);
#252=AXIS2_PLACEMENT_3D('',#341,#278,#279);
#253=AXIS2_PLACEMENT_3D('',#355,#287,#288);
#254=AXIS2_PLACEMENT_3D('',#359,#291,#292);
#255=AXIS2_PLACEMENT_3D('',#363,#295,#296);
#256=AXIS2_PLACEMENT_3D('',#369,#300,#301);
#257=AXIS2_PLACEMENT_3D('',#373,#304,#305);
#258=AXIS2_PLACEMENT_3D('',#377,#308,#309);
#259=AXIS2_PLACEMENT_3D('',#379,#311,#312);
#260=AXIS2_PLACEMENT_3D('',#381,#314,#315);
#261=AXIS2_PLACEMENT_3D('',#382,#316,#317);
#262=AXIS2_PLACEMENT_3D('',#383,#318,#319);
#263=AXIS2_PLACEMENT_3D('',#384,#320,#321);
#264=AXIS2_PLACEMENT_3D('',#385,#322,#323);
#265=AXIS2_PLACEMENT_3D('',#386,#324,#325);
#266=AXIS2_PLACEMENT_3D('',#387,#326,#327);
#267=AXIS2_PLACEMENT_3D('',#388,#328,#329);
#268=DIRECTION('axis',(0.,0.,1.));
#269=DIRECTION('refdir',(1.,0.,0.));
#270=DIRECTION('axis',(0.,0.,1.));
#271=DIRECTION('refdir',(1.,0.,0.));
#272=DIRECTION('center_axis',(0.707106781186548,1.29656956429769E-16,-0.707106781186547));
#273=DIRECTION('ref_axis',(-0.707106781186547,0.,-0.707106781186548));
#274=DIRECTION('',(0.707106781186547,0.,0.707106781186548));
#275=DIRECTION('',(1.83362626238996E-16,-1.,0.));
#276=DIRECTION('',(-0.707106781186547,0.,-0.707106781186548));
#277=DIRECTION('',(-1.83362626238996E-16,1.,0.));
#278=DIRECTION('center_axis',(0.,1.,0.));
#279=DIRECTION('ref_axis',(-1.,0.,0.));
#280=DIRECTION('',(-1.,0.,0.));
#281=DIRECTION('',(0.707106781186548,0.,-0.707106781186548));
#282=DIRECTION('',(0.,0.,1.));
#283=DIRECTION('',(-0.70710678118655,0.,-0.707106781186545));
#284=DIRECTION('',(-1.,0.,0.));
#285=DIRECTION('',(-0.70710678118655,0.,0.707106781186545));
#286=DIRECTION('',(0.,0.,1.));
#287=DIRECTION('center_axis',(0.,0.,1.));
#288=DIRECTION('ref_axis',(1.,0.,0.));
#289=DIRECTION('',(1.,0.,0.));
#290=DIRECTION('',(3.05185740932028E-16,-1.,0.));
#291=DIRECTION('center_axis',(-0.707106781186548,-2.15798906934478E-16,
-0.707106781186548));
#292=DIRECTION('ref_axis',(-0.707106781186548,0.,0.707106781186548));
#293=DIRECTION('',(-0.707106781186548,0.,0.707106781186548));
#294=DIRECTION('',(-3.05185740932028E-16,1.,0.));
#295=DIRECTION('center_axis',(-0.707106781186545,-2.15798906934477E-16,
0.70710678118655));
#296=DIRECTION('ref_axis',(0.70710678118655,0.,0.707106781186545));
#297=DIRECTION('',(0.70710678118655,0.,0.707106781186545));
#298=DIRECTION('',(-3.05185740932028E-16,1.,0.));
#299=DIRECTION('',(3.05185740932028E-16,-1.,0.));
#300=DIRECTION('center_axis',(0.,0.,1.));
#301=DIRECTION('ref_axis',(1.,0.,0.));
#302=DIRECTION('',(1.,0.,0.));
#303=DIRECTION('',(1.83362626238996E-16,-1.,0.));
#304=DIRECTION('center_axis',(0.707106781186545,1.29656956429768E-16,0.70710678118655));
#305=DIRECTION('ref_axis',(0.70710678118655,0.,-0.707106781186545));
#306=DIRECTION('',(0.70710678118655,0.,-0.707106781186545));
#307=DIRECTION('',(-1.83362626238996E-16,1.,0.));
#308=DIRECTION('center_axis',(-1.,-3.05185740932028E-16,0.));
#309=DIRECTION('ref_axis',(3.05185740932028E-16,-1.,0.));
#310=DIRECTION('',(0.,0.,1.));
#311=DIRECTION('center_axis',(1.,1.83362626238996E-16,0.));
#312=DIRECTION('ref_axis',(-1.83362626238996E-16,1.,0.));
#313=DIRECTION('',(0.,0.,1.));
#314=DIRECTION('center_axis',(0.,-1.,0.));
#315=DIRECTION('ref_axis',(1.,0.,0.));
#316=DIRECTION('',(0.,0.,1.));
#317=DIRECTION('',(-1.83362626238996E-16,-1.,0.));
#318=DIRECTION('',(0.,0.,1.));
#319=DIRECTION('',(-1.83362626238996E-16,-1.,0.));
#320=DIRECTION('',(0.,0.,1.));
#321=DIRECTION('',(-1.83362626238996E-16,-1.,0.));
#322=DIRECTION('',(0.,0.,1.));
#323=DIRECTION('',(-1.83362626238996E-16,-1.,0.));
#324=DIRECTION('',(0.,0.,1.));
#325=DIRECTION('',(-1.83362626238996E-16,-1.,0.));
#326=DIRECTION('',(0.,0.,1.));
#327=DIRECTION('',(-1.83362626238996E-16,-1.,0.));
#328=DIRECTION('center_axis',(0.,0.,1.));
#329=DIRECTION('ref_axis',(1.,0.,0.));
#330=CARTESIAN_POINT('',(0.,0.,0.));
#331=CARTESIAN_POINT('',(0.,0.,0.));
#332=CARTESIAN_POINT('Origin',(2.70000000000001,-110.499999999999,0.3));
#333=CARTESIAN_POINT('',(2.39999999999995,221.000000000001,0.));
#334=CARTESIAN_POINT('',(2.99999999999995,221.000000000001,0.6));
#335=CARTESIAN_POINT('',(2.69999999999996,221.000000000001,0.300000000000015));
#336=CARTESIAN_POINT('',(3.00000000000003,-220.999999999999,0.6));
#337=CARTESIAN_POINT('',(3.00000000000001,-110.499999999999,0.6));
#338=CARTESIAN_POINT('',(2.40000000000003,-220.999999999999,0.));
#339=CARTESIAN_POINT('',(1.20000000000004,-220.999999999999,-1.19999999999999));
#340=CARTESIAN_POINT('',(2.40000000000001,-110.499999999999,0.));
#341=CARTESIAN_POINT('Origin',(2.99999999999995,221.000000000001,0.));
#342=CARTESIAN_POINT('',(-2.40000000000005,221.000000000001,0.));
#343=CARTESIAN_POINT('',(2.99999999999995,221.000000000001,0.));
#344=CARTESIAN_POINT('',(-3.00000000000006,221.000000000001,0.6));
#345=CARTESIAN_POINT('',(-1.20000000000005,221.000000000001,-1.20000000000001));
#346=CARTESIAN_POINT('',(-3.00000000000006,221.000000000001,51.4));
#347=CARTESIAN_POINT('',(-3.00000000000006,221.000000000001,0.));
#348=CARTESIAN_POINT('',(-2.40000000000005,221.000000000001,52.));
#349=CARTESIAN_POINT('',(-14.2,221.000000000001,40.2000000000001));
#350=CARTESIAN_POINT('',(2.39999999999995,221.000000000001,52.));
#351=CARTESIAN_POINT('',(2.99999999999995,221.000000000001,52.));
#352=CARTESIAN_POINT('',(2.99999999999995,221.000000000001,51.4));
#353=CARTESIAN_POINT('',(15.7,221.000000000001,38.7000000000001));
#354=CARTESIAN_POINT('',(2.99999999999995,221.000000000001,0.));
#355=CARTESIAN_POINT('Origin',(-1.18952466924124E-15,1.0788988750018E-12,
0.));
#356=CARTESIAN_POINT('',(-2.39999999999992,-220.999999999999,0.));
#357=CARTESIAN_POINT('',(-2.99999999999992,-220.999999999999,0.));
#358=CARTESIAN_POINT('',(-2.40000000000002,110.500000000001,0.));
#359=CARTESIAN_POINT('Origin',(-2.70000000000002,110.500000000001,0.3));
#360=CARTESIAN_POINT('',(-2.99999999999992,-220.999999999999,0.6));
#361=CARTESIAN_POINT('',(-2.69999999999995,-220.999999999999,0.300000000000025));
#362=CARTESIAN_POINT('',(-3.00000000000002,110.500000000001,0.6));
#363=CARTESIAN_POINT('Origin',(-2.70000000000002,110.500000000001,51.7));
#364=CARTESIAN_POINT('',(-2.99999999999992,-220.999999999999,51.4));
#365=CARTESIAN_POINT('',(-2.39999999999992,-220.999999999999,52.));
#366=CARTESIAN_POINT('',(-15.6999999999999,-220.999999999999,38.7000000000001));
#367=CARTESIAN_POINT('',(-2.40000000000002,110.500000000001,52.));
#368=CARTESIAN_POINT('',(-3.00000000000002,110.500000000001,51.4));
#369=CARTESIAN_POINT('Origin',(-1.18952466924124E-15,1.0788988750018E-12,
52.));
#370=CARTESIAN_POINT('',(2.40000000000003,-220.999999999999,52.));
#371=CARTESIAN_POINT('',(-2.99999999999992,-220.999999999999,52.));
#372=CARTESIAN_POINT('',(2.40000000000001,-110.499999999999,52.));
#373=CARTESIAN_POINT('Origin',(2.70000000000001,-110.499999999999,51.7));
#374=CARTESIAN_POINT('',(3.00000000000003,-220.999999999999,51.4));
#375=CARTESIAN_POINT('',(14.2,-220.999999999999,40.2000000000001));
#376=CARTESIAN_POINT('',(3.00000000000001,-110.499999999999,51.4));
#377=CARTESIAN_POINT('Origin',(-3.00000000000006,221.000000000001,0.));
#378=CARTESIAN_POINT('',(-2.99999999999992,-220.999999999999,0.));
#379=CARTESIAN_POINT('Origin',(3.00000000000003,-220.999999999999,0.));
#380=CARTESIAN_POINT('',(3.00000000000003,-220.999999999999,0.));
#381=CARTESIAN_POINT('Origin',(-2.99999999999992,-220.999999999999,0.));
#382=CARTESIAN_POINT('',(-329.000000000001,17.,101.1));
#383=CARTESIAN_POINT('',(-329.000000000001,17.,404.1));
#384=CARTESIAN_POINT('',(-329.000000000001,17.,707.1));
#385=CARTESIAN_POINT('',(-329.000000000001,17.,1010.1));
#386=CARTESIAN_POINT('',(-329.000000000001,17.,1313.1));
#387=CARTESIAN_POINT('',(-329.000000000001,17.,1666.1));
#388=CARTESIAN_POINT('Origin',(0.,0.,0.));
#389=UNCERTAINTY_MEASURE_WITH_UNIT(LENGTH_MEASURE(0.01),#395,
'DISTANCE_ACCURACY_VALUE',
'Maximum model space distance between geometric entities at asserted c
onnectivities');
#390=UNCERTAINTY_MEASURE_WITH_UNIT(LENGTH_MEASURE(0.01),#395,
'DISTANCE_ACCURACY_VALUE',
'Maximum model space distance between geometric entities at asserted c
onnectivities');
#391=UNCERTAINTY_MEASURE_WITH_UNIT(LENGTH_MEASURE(0.01),#395,
'DISTANCE_ACCURACY_VALUE',
'Maximum model space distance between geometric entities at asserted c
onnectivities');
#392=(
GEOMETRIC_REPRESENTATION_CONTEXT(3)
GLOBAL_UNCERTAINTY_ASSIGNED_CONTEXT((#389))
GLOBAL_UNIT_ASSIGNED_CONTEXT((#395,#397,#398))
REPRESENTATION_CONTEXT('','3D')
);
#393=(
GEOMETRIC_REPRESENTATION_CONTEXT(3)
GLOBAL_UNCERTAINTY_ASSIGNED_CONTEXT((#390))
GLOBAL_UNIT_ASSIGNED_CONTEXT((#395,#397,#398))
REPRESENTATION_CONTEXT('','3D')
);
#394=(
GEOMETRIC_REPRESENTATION_CONTEXT(3)
GLOBAL_UNCERTAINTY_ASSIGNED_CONTEXT((#391))
GLOBAL_UNIT_ASSIGNED_CONTEXT((#395,#397,#398))
REPRESENTATION_CONTEXT('','3D')
);
#395=(
LENGTH_UNIT()
NAMED_UNIT(*)
SI_UNIT(.MILLI.,.METRE.)
);
#396=(
LENGTH_UNIT()
NAMED_UNIT(*)
SI_UNIT(.CENTI.,.METRE.)
);
#397=(
NAMED_UNIT(*)
PLANE_ANGLE_UNIT()
SI_UNIT($,.RADIAN.)
);
#398=(
NAMED_UNIT(*)
SI_UNIT($,.STERADIAN.)
SOLID_ANGLE_UNIT()
);
#399=SHAPE_DEFINITION_REPRESENTATION(#401,#409);
#400=SHAPE_DEFINITION_REPRESENTATION(#402,#410);
#401=PRODUCT_DEFINITION_SHAPE('',$,#412);
#402=PRODUCT_DEFINITION_SHAPE('',$,#413);
#403=PRODUCT_DEFINITION_SHAPE($,$,#37);
#404=PRODUCT_DEFINITION_SHAPE($,$,#38);
#405=PRODUCT_DEFINITION_SHAPE($,$,#39);
#406=PRODUCT_DEFINITION_SHAPE($,$,#40);
#407=PRODUCT_DEFINITION_SHAPE($,$,#41);
#408=PRODUCT_DEFINITION_SHAPE($,$,#42);
#409=SHAPE_REPRESENTATION('',(#249,#261,#262,#263,#264,#265,#266),#392);
#410=SHAPE_REPRESENTATION('',(#250),#393);
#411=DESIGN_CONTEXT('part definition',#419,'design');
#412=PRODUCT_DEFINITION('Holz Einlage 3/3 B600 H52 re 6er',
'3D_100-1202-XX_re_6 106331',#414,#411);
#413=PRODUCT_DEFINITION('Holz Einlage H52 Pleno Liro 600 3/3',
'Holz Einlage H52 Pleno Liro 600 3_3 089004',#415,#411);
#414=PRODUCT_DEFINITION_FORMATION('',$,#421);
#415=PRODUCT_DEFINITION_FORMATION('',$,#422);
#416=PRODUCT_RELATED_PRODUCT_CATEGORY('3D_100-1202-XX_re_6 106331',
'3D_100-1202-XX_re_6 106331',(#421));
#417=PRODUCT_RELATED_PRODUCT_CATEGORY(
'Holz Einlage H52 Pleno Liro 600 3_3 089004',
'Holz Einlage H52 Pleno Liro 600 3_3 089004',(#422));
#418=APPLICATION_PROTOCOL_DEFINITION('international standard',
'ap203_configuration_controlled_3d_design_of_mechanical_parts_and_asse
mblies_mim_lf',2004,#419);
#419=APPLICATION_CONTEXT(
'Configuration Controlled 3D Design of Mechanical Parts and Assemblies');
#420=MECHANICAL_CONTEXT('part definition',#419,'mechanical');
#421=PRODUCT('Holz Einlage 3/3 B600 H52 re 6er',
'3D_100-1202-XX_re_6 106331',$,(#420));
#422=PRODUCT('Holz Einlage H52 Pleno Liro 600 3/3',
'Holz Einlage H52 Pleno Liro 600 3_3 089004',$,(#420));
#423=PRESENTATION_STYLE_ASSIGNMENT((#426));
#424=PRESENTATION_STYLE_ASSIGNMENT((#427));
#425=PRESENTATION_STYLE_ASSIGNMENT((NULL_STYLE(.NULL.)));
#426=SURFACE_STYLE_USAGE(.BOTH.,#430);
#427=SURFACE_STYLE_USAGE(.BOTH.,#431);
#428=SURFACE_STYLE_RENDERING_WITH_PROPERTIES($,#438,(#429));
#429=SURFACE_STYLE_TRANSPARENT(0.);
#430=SURFACE_SIDE_STYLE('',(#432,#428));
#431=SURFACE_SIDE_STYLE('',(#433));
#432=SURFACE_STYLE_FILL_AREA(#434);
#433=SURFACE_STYLE_FILL_AREA(#435);
#434=FILL_AREA_STYLE('',(#436));
#435=FILL_AREA_STYLE('',(#437));
#436=FILL_AREA_STYLE_COLOUR('',#438);
#437=FILL_AREA_STYLE_COLOUR('',#439);
#438=COLOUR_RGB('',0.580392156862745,0.650980392156863,0.72156862745098);
#439=COLOUR_RGB('',0.466666666666667,0.305882352941176,0.172549019607843);
ENDSEC;
END-ISO-10303-21;
