ISO-10303-21;
HEADER;
/* Generated by software containing ST-Developer
 * from STEP Tools, Inc. (www.steptools.com) 
 */

FILE_DESCRIPTION(
/* description */ (''),
/* implementation_level */ '2;1');

FILE_NAME(
/* name */ 
'\\\\MOPKFS001\\UserHome$\\as\\Dokumente as\\Virtueller Desktop\\3D CA
D WEB Test\\Daten f\X\FCr WEB Extendo\\3D_200-2696-XX.stp',
/* time_stamp */ '2022-03-17T12:00:22+01:00',
/* author */ ('as'),
/* organization */ (''),
/* preprocessor_version */ 'ST-DEVELOPER v18.1',
/* originating_system */ 'Autodesk Inventor 2021',
/* authorisation */ '');

FILE_SCHEMA (('CONFIG_CONTROL_DESIGN'));
ENDSEC;

DATA;
#10=MECHANICAL_DESIGN_GEOMETRIC_PRESENTATION_REPRESENTATION('',(#180,#181,
#182,#183,#184,#185,#186,#187,#188,#189,#190),#331);
#11=SHAPE_REPRESENTATION_RELATIONSHIP('SRR','None',#338,#12);
#12=ADVANCED_BREP_SHAPE_REPRESENTATION('',(#13),#330);
#13=MANIFOLD_SOLID_BREP('Volumenk\X\F6rper1',#201);
#14=FACE_OUTER_BOUND('',#24,.T.);
#15=FACE_OUTER_BOUND('',#25,.T.);
#16=FACE_OUTER_BOUND('',#26,.T.);
#17=FACE_OUTER_BOUND('',#27,.T.);
#18=FACE_OUTER_BOUND('',#28,.T.);
#19=FACE_OUTER_BOUND('',#29,.T.);
#20=FACE_OUTER_BOUND('',#30,.T.);
#21=FACE_OUTER_BOUND('',#31,.T.);
#22=FACE_OUTER_BOUND('',#32,.T.);
#23=FACE_OUTER_BOUND('',#33,.T.);
#24=EDGE_LOOP('',(#122,#123,#124,#125));
#25=EDGE_LOOP('',(#126,#127,#128,#129,#130,#131,#132,#133));
#26=EDGE_LOOP('',(#134,#135,#136,#137));
#27=EDGE_LOOP('',(#138,#139,#140,#141));
#28=EDGE_LOOP('',(#142,#143,#144,#145));
#29=EDGE_LOOP('',(#146,#147,#148,#149));
#30=EDGE_LOOP('',(#150,#151,#152,#153));
#31=EDGE_LOOP('',(#154,#155,#156,#157));
#32=EDGE_LOOP('',(#158,#159,#160,#161));
#33=EDGE_LOOP('',(#162,#163,#164,#165,#166,#167,#168,#169));
#34=LINE('',#281,#58);
#35=LINE('',#283,#59);
#36=LINE('',#285,#60);
#37=LINE('',#286,#61);
#38=LINE('',#289,#62);
#39=LINE('',#291,#63);
#40=LINE('',#293,#64);
#41=LINE('',#295,#65);
#42=LINE('',#297,#66);
#43=LINE('',#299,#67);
#44=LINE('',#300,#68);
#45=LINE('',#303,#69);
#46=LINE('',#304,#70);
#47=LINE('',#307,#71);
#48=LINE('',#308,#72);
#49=LINE('',#311,#73);
#50=LINE('',#313,#74);
#51=LINE('',#314,#75);
#52=LINE('',#317,#76);
#53=LINE('',#318,#77);
#54=LINE('',#321,#78);
#55=LINE('',#322,#79);
#56=LINE('',#324,#80);
#57=LINE('',#326,#81);
#58=VECTOR('',#235,10.);
#59=VECTOR('',#236,10.);
#60=VECTOR('',#237,10.);
#61=VECTOR('',#238,10.);
#62=VECTOR('',#241,10.);
#63=VECTOR('',#242,10.);
#64=VECTOR('',#243,10.);
#65=VECTOR('',#244,10.);
#66=VECTOR('',#245,10.);
#67=VECTOR('',#246,10.);
#68=VECTOR('',#247,10.);
#69=VECTOR('',#250,10.);
#70=VECTOR('',#251,10.);
#71=VECTOR('',#254,10.);
#72=VECTOR('',#255,10.);
#73=VECTOR('',#258,10.);
#74=VECTOR('',#259,10.);
#75=VECTOR('',#260,10.);
#76=VECTOR('',#263,10.);
#77=VECTOR('',#264,10.);
#78=VECTOR('',#267,10.);
#79=VECTOR('',#268,10.);
#80=VECTOR('',#271,10.);
#81=VECTOR('',#274,10.);
#82=VERTEX_POINT('',#279);
#83=VERTEX_POINT('',#280);
#84=VERTEX_POINT('',#282);
#85=VERTEX_POINT('',#284);
#86=VERTEX_POINT('',#288);
#87=VERTEX_POINT('',#290);
#88=VERTEX_POINT('',#292);
#89=VERTEX_POINT('',#294);
#90=VERTEX_POINT('',#296);
#91=VERTEX_POINT('',#298);
#92=VERTEX_POINT('',#302);
#93=VERTEX_POINT('',#306);
#94=VERTEX_POINT('',#310);
#95=VERTEX_POINT('',#312);
#96=VERTEX_POINT('',#316);
#97=VERTEX_POINT('',#320);
#98=EDGE_CURVE('',#82,#83,#34,.T.);
#99=EDGE_CURVE('',#83,#84,#35,.T.);
#100=EDGE_CURVE('',#84,#85,#36,.T.);
#101=EDGE_CURVE('',#85,#82,#37,.T.);
#102=EDGE_CURVE('',#84,#86,#38,.T.);
#103=EDGE_CURVE('',#87,#86,#39,.T.);
#104=EDGE_CURVE('',#87,#88,#40,.T.);
#105=EDGE_CURVE('',#89,#88,#41,.T.);
#106=EDGE_CURVE('',#89,#90,#42,.T.);
#107=EDGE_CURVE('',#91,#90,#43,.T.);
#108=EDGE_CURVE('',#91,#85,#44,.T.);
#109=EDGE_CURVE('',#92,#83,#45,.T.);
#110=EDGE_CURVE('',#86,#92,#46,.T.);
#111=EDGE_CURVE('',#92,#93,#47,.T.);
#112=EDGE_CURVE('',#93,#87,#48,.T.);
#113=EDGE_CURVE('',#88,#94,#49,.T.);
#114=EDGE_CURVE('',#94,#95,#50,.T.);
#115=EDGE_CURVE('',#95,#89,#51,.T.);
#116=EDGE_CURVE('',#96,#95,#52,.T.);
#117=EDGE_CURVE('',#90,#96,#53,.T.);
#118=EDGE_CURVE('',#96,#97,#54,.T.);
#119=EDGE_CURVE('',#97,#91,#55,.T.);
#120=EDGE_CURVE('',#82,#97,#56,.T.);
#121=EDGE_CURVE('',#94,#93,#57,.T.);
#122=ORIENTED_EDGE('',*,*,#98,.T.);
#123=ORIENTED_EDGE('',*,*,#99,.T.);
#124=ORIENTED_EDGE('',*,*,#100,.T.);
#125=ORIENTED_EDGE('',*,*,#101,.T.);
#126=ORIENTED_EDGE('',*,*,#100,.F.);
#127=ORIENTED_EDGE('',*,*,#102,.T.);
#128=ORIENTED_EDGE('',*,*,#103,.F.);
#129=ORIENTED_EDGE('',*,*,#104,.T.);
#130=ORIENTED_EDGE('',*,*,#105,.F.);
#131=ORIENTED_EDGE('',*,*,#106,.T.);
#132=ORIENTED_EDGE('',*,*,#107,.F.);
#133=ORIENTED_EDGE('',*,*,#108,.T.);
#134=ORIENTED_EDGE('',*,*,#99,.F.);
#135=ORIENTED_EDGE('',*,*,#109,.F.);
#136=ORIENTED_EDGE('',*,*,#110,.F.);
#137=ORIENTED_EDGE('',*,*,#102,.F.);
#138=ORIENTED_EDGE('',*,*,#111,.T.);
#139=ORIENTED_EDGE('',*,*,#112,.T.);
#140=ORIENTED_EDGE('',*,*,#103,.T.);
#141=ORIENTED_EDGE('',*,*,#110,.T.);
#142=ORIENTED_EDGE('',*,*,#105,.T.);
#143=ORIENTED_EDGE('',*,*,#113,.T.);
#144=ORIENTED_EDGE('',*,*,#114,.T.);
#145=ORIENTED_EDGE('',*,*,#115,.T.);
#146=ORIENTED_EDGE('',*,*,#115,.F.);
#147=ORIENTED_EDGE('',*,*,#116,.F.);
#148=ORIENTED_EDGE('',*,*,#117,.F.);
#149=ORIENTED_EDGE('',*,*,#106,.F.);
#150=ORIENTED_EDGE('',*,*,#118,.T.);
#151=ORIENTED_EDGE('',*,*,#119,.T.);
#152=ORIENTED_EDGE('',*,*,#107,.T.);
#153=ORIENTED_EDGE('',*,*,#117,.T.);
#154=ORIENTED_EDGE('',*,*,#101,.F.);
#155=ORIENTED_EDGE('',*,*,#108,.F.);
#156=ORIENTED_EDGE('',*,*,#119,.F.);
#157=ORIENTED_EDGE('',*,*,#120,.F.);
#158=ORIENTED_EDGE('',*,*,#112,.F.);
#159=ORIENTED_EDGE('',*,*,#121,.F.);
#160=ORIENTED_EDGE('',*,*,#113,.F.);
#161=ORIENTED_EDGE('',*,*,#104,.F.);
#162=ORIENTED_EDGE('',*,*,#98,.F.);
#163=ORIENTED_EDGE('',*,*,#120,.T.);
#164=ORIENTED_EDGE('',*,*,#118,.F.);
#165=ORIENTED_EDGE('',*,*,#116,.T.);
#166=ORIENTED_EDGE('',*,*,#114,.F.);
#167=ORIENTED_EDGE('',*,*,#121,.T.);
#168=ORIENTED_EDGE('',*,*,#111,.F.);
#169=ORIENTED_EDGE('',*,*,#109,.T.);
#170=PLANE('',#221);
#171=PLANE('',#222);
#172=PLANE('',#223);
#173=PLANE('',#224);
#174=PLANE('',#225);
#175=PLANE('',#226);
#176=PLANE('',#227);
#177=PLANE('',#228);
#178=PLANE('',#229);
#179=PLANE('',#230);
#180=STYLED_ITEM('',(#350),#191);
#181=STYLED_ITEM('',(#350),#192);
#182=STYLED_ITEM('',(#350),#193);
#183=STYLED_ITEM('',(#350),#194);
#184=STYLED_ITEM('',(#350),#195);
#185=STYLED_ITEM('',(#350),#196);
#186=STYLED_ITEM('',(#350),#197);
#187=STYLED_ITEM('',(#350),#198);
#188=STYLED_ITEM('',(#350),#199);
#189=STYLED_ITEM('',(#350),#200);
#190=STYLED_ITEM('',(#349),#13);
#191=ADVANCED_FACE('',(#14),#170,.T.);
#192=ADVANCED_FACE('',(#15),#171,.F.);
#193=ADVANCED_FACE('',(#16),#172,.T.);
#194=ADVANCED_FACE('',(#17),#173,.T.);
#195=ADVANCED_FACE('',(#18),#174,.T.);
#196=ADVANCED_FACE('',(#19),#175,.T.);
#197=ADVANCED_FACE('',(#20),#176,.T.);
#198=ADVANCED_FACE('',(#21),#177,.T.);
#199=ADVANCED_FACE('',(#22),#178,.T.);
#200=ADVANCED_FACE('',(#23),#179,.T.);
#201=CLOSED_SHELL('',(#191,#192,#193,#194,#195,#196,#197,#198,#199,#200));
#202=DERIVED_UNIT_ELEMENT(#204,1.);
#203=DERIVED_UNIT_ELEMENT(#333,-3.);
#204=(
MASS_UNIT()
NAMED_UNIT(*)
SI_UNIT($,.GRAM.)
);
#205=DERIVED_UNIT((#202,#203));
#206=MEASURE_REPRESENTATION_ITEM('density measure',
POSITIVE_RATIO_MEASURE(1.06),#205);
#207=PROPERTY_DEFINITION_REPRESENTATION(#212,#209);
#208=PROPERTY_DEFINITION_REPRESENTATION(#213,#210);
#209=REPRESENTATION('material name',(#211),#330);
#210=REPRESENTATION('density',(#206),#330);
#211=DESCRIPTIVE_REPRESENTATION_ITEM('Kst - ABS','Kst - ABS');
#212=PROPERTY_DEFINITION('material property','material name',#340);
#213=PROPERTY_DEFINITION('material property','density of part',#340);
#214=DATE_TIME_ROLE('creation_date');
#215=CC_DESIGN_DATE_AND_TIME_ASSIGNMENT(#216,#214,(#340));
#216=DATE_AND_TIME(#217,#218);
#217=CALENDAR_DATE(2015,4,9);
#218=LOCAL_TIME(0,0,0.,#219);
#219=COORDINATED_UNIVERSAL_TIME_OFFSET(0,0,.BEHIND.);
#220=AXIS2_PLACEMENT_3D('placement',#277,#231,#232);
#221=AXIS2_PLACEMENT_3D('',#278,#233,#234);
#222=AXIS2_PLACEMENT_3D('',#287,#239,#240);
#223=AXIS2_PLACEMENT_3D('',#301,#248,#249);
#224=AXIS2_PLACEMENT_3D('',#305,#252,#253);
#225=AXIS2_PLACEMENT_3D('',#309,#256,#257);
#226=AXIS2_PLACEMENT_3D('',#315,#261,#262);
#227=AXIS2_PLACEMENT_3D('',#319,#265,#266);
#228=AXIS2_PLACEMENT_3D('',#323,#269,#270);
#229=AXIS2_PLACEMENT_3D('',#325,#272,#273);
#230=AXIS2_PLACEMENT_3D('',#327,#275,#276);
#231=DIRECTION('axis',(0.,0.,1.));
#232=DIRECTION('refdir',(1.,0.,0.));
#233=DIRECTION('center_axis',(0.,0.707106781186547,-0.707106781186548));
#234=DIRECTION('ref_axis',(-1.,0.,0.));
#235=DIRECTION('',(0.,-0.707106781186548,-0.707106781186547));
#236=DIRECTION('',(-1.,0.,0.));
#237=DIRECTION('',(0.,0.707106781186548,0.707106781186547));
#238=DIRECTION('',(1.,0.,0.));
#239=DIRECTION('center_axis',(1.,0.,0.));
#240=DIRECTION('ref_axis',(0.,0.,-1.));
#241=DIRECTION('',(0.,-1.,-1.83697019872103E-16));
#242=DIRECTION('',(0.,0.70710678118655,-0.707106781186545));
#243=DIRECTION('',(0.,0.,1.));
#244=DIRECTION('',(0.,-0.707106781186545,-0.70710678118655));
#245=DIRECTION('',(0.,1.,0.));
#246=DIRECTION('',(0.,-0.707106781186545,0.70710678118655));
#247=DIRECTION('',(0.,1.1686558153949E-16,-1.));
#248=DIRECTION('center_axis',(0.,1.83697019872103E-16,-1.));
#249=DIRECTION('ref_axis',(0.,1.,1.83697019872103E-16));
#250=DIRECTION('',(0.,1.,1.83697019872103E-16));
#251=DIRECTION('',(1.,0.,0.));
#252=DIRECTION('center_axis',(0.,-0.707106781186545,-0.70710678118655));
#253=DIRECTION('ref_axis',(-1.,0.,0.));
#254=DIRECTION('',(0.,-0.70710678118655,0.707106781186545));
#255=DIRECTION('',(-1.,0.,0.));
#256=DIRECTION('center_axis',(0.,-0.70710678118655,0.707106781186545));
#257=DIRECTION('ref_axis',(1.,0.,0.));
#258=DIRECTION('',(1.,0.,0.));
#259=DIRECTION('',(0.,0.707106781186545,0.70710678118655));
#260=DIRECTION('',(-1.,0.,0.));
#261=DIRECTION('center_axis',(0.,0.,1.));
#262=DIRECTION('ref_axis',(0.,-1.,0.));
#263=DIRECTION('',(0.,-1.,0.));
#264=DIRECTION('',(1.,0.,0.));
#265=DIRECTION('center_axis',(0.,0.70710678118655,0.707106781186545));
#266=DIRECTION('ref_axis',(1.,0.,0.));
#267=DIRECTION('',(0.,0.707106781186545,-0.70710678118655));
#268=DIRECTION('',(-1.,0.,0.));
#269=DIRECTION('center_axis',(0.,1.,1.1686558153949E-16));
#270=DIRECTION('ref_axis',(0.,-1.1686558153949E-16,1.));
#271=DIRECTION('',(0.,-1.1686558153949E-16,1.));
#272=DIRECTION('center_axis',(0.,-1.,0.));
#273=DIRECTION('ref_axis',(0.,0.,-1.));
#274=DIRECTION('',(0.,0.,-1.));
#275=DIRECTION('center_axis',(1.,0.,0.));
#276=DIRECTION('ref_axis',(0.,0.,-1.));
#277=CARTESIAN_POINT('',(0.,0.,0.));
#278=CARTESIAN_POINT('Origin',(0.,5.7,0.299999999999957));
#279=CARTESIAN_POINT('',(398.5,6.,0.599999999999957));
#280=CARTESIAN_POINT('',(398.5,5.4,-4.30953208619956E-14));
#281=CARTESIAN_POINT('',(398.5,16.825,11.4249999999999));
#282=CARTESIAN_POINT('',(-398.5,5.4,-4.30953208619956E-14));
#283=CARTESIAN_POINT('',(0.,5.4,-4.30905311432639E-14));
#284=CARTESIAN_POINT('',(-398.5,6.,0.599999999999957));
#285=CARTESIAN_POINT('',(-398.5,16.825,11.4249999999999));
#286=CARTESIAN_POINT('',(0.,6.,0.599999999999957));
#287=CARTESIAN_POINT('Origin',(-398.5,3.,47.5));
#288=CARTESIAN_POINT('',(-398.5,0.6,-4.39770665573817E-14));
#289=CARTESIAN_POINT('',(-398.5,0.,-4.4087284769305E-14));
#290=CARTESIAN_POINT('',(-398.5,0.,0.599999999999952));
#291=CARTESIAN_POINT('',(-398.5,-10.825,11.4249999999999));
#292=CARTESIAN_POINT('',(-398.5,0.,94.4));
#293=CARTESIAN_POINT('',(-398.5,0.,95.));
#294=CARTESIAN_POINT('',(-398.5,0.600000000000001,95.));
#295=CARTESIAN_POINT('',(-398.5,-10.825,83.5749999999999));
#296=CARTESIAN_POINT('',(-398.5,5.39999999999999,95.));
#297=CARTESIAN_POINT('',(-398.5,5.99999999999999,95.));
#298=CARTESIAN_POINT('',(-398.5,5.99999999999999,94.4));
#299=CARTESIAN_POINT('',(-398.5,16.825,83.5749999999999));
#300=CARTESIAN_POINT('',(-398.5,6.,-4.29851026500724E-14));
#301=CARTESIAN_POINT('Origin',(0.,0.,-4.4087284769305E-14));
#302=CARTESIAN_POINT('',(398.5,0.6,-4.39770665573817E-14));
#303=CARTESIAN_POINT('',(398.5,0.,-4.4087284769305E-14));
#304=CARTESIAN_POINT('',(0.,0.6,-4.39231984117328E-14));
#305=CARTESIAN_POINT('Origin',(0.,0.3,0.299999999999954));
#306=CARTESIAN_POINT('',(398.5,0.,0.599999999999952));
#307=CARTESIAN_POINT('',(398.5,-10.825,11.4249999999999));
#308=CARTESIAN_POINT('',(0.,0.,0.599999999999952));
#309=CARTESIAN_POINT('Origin',(0.,0.3,94.7));
#310=CARTESIAN_POINT('',(398.5,0.,94.4));
#311=CARTESIAN_POINT('',(0.,0.,94.4));
#312=CARTESIAN_POINT('',(398.5,0.600000000000001,95.));
#313=CARTESIAN_POINT('',(398.5,-10.825,83.5749999999999));
#314=CARTESIAN_POINT('',(0.,0.600000000000001,95.));
#315=CARTESIAN_POINT('Origin',(0.,5.99999999999999,95.));
#316=CARTESIAN_POINT('',(398.5,5.39999999999999,95.));
#317=CARTESIAN_POINT('',(398.5,5.99999999999999,95.));
#318=CARTESIAN_POINT('',(0.,5.39999999999999,95.));
#319=CARTESIAN_POINT('Origin',(0.,5.69999999999999,94.7));
#320=CARTESIAN_POINT('',(398.5,5.99999999999999,94.4));
#321=CARTESIAN_POINT('',(398.5,16.825,83.5749999999999));
#322=CARTESIAN_POINT('',(0.,5.99999999999999,94.4));
#323=CARTESIAN_POINT('Origin',(0.,6.,-4.29851026500724E-14));
#324=CARTESIAN_POINT('',(398.5,6.,-4.29851026500724E-14));
#325=CARTESIAN_POINT('Origin',(0.,0.,95.));
#326=CARTESIAN_POINT('',(398.5,0.,95.));
#327=CARTESIAN_POINT('Origin',(398.5,3.,47.5));
#328=UNCERTAINTY_MEASURE_WITH_UNIT(LENGTH_MEASURE(0.01),#332,
'DISTANCE_ACCURACY_VALUE',
'Maximum model space distance between geometric entities at asserted c
onnectivities');
#329=UNCERTAINTY_MEASURE_WITH_UNIT(LENGTH_MEASURE(0.01),#332,
'DISTANCE_ACCURACY_VALUE',
'Maximum model space distance between geometric entities at asserted c
onnectivities');
#330=(
GEOMETRIC_REPRESENTATION_CONTEXT(3)
GLOBAL_UNCERTAINTY_ASSIGNED_CONTEXT((#328))
GLOBAL_UNIT_ASSIGNED_CONTEXT((#332,#334,#335))
REPRESENTATION_CONTEXT('','3D')
);
#331=(
GEOMETRIC_REPRESENTATION_CONTEXT(3)
GLOBAL_UNCERTAINTY_ASSIGNED_CONTEXT((#329))
GLOBAL_UNIT_ASSIGNED_CONTEXT((#332,#334,#335))
REPRESENTATION_CONTEXT('','3D')
);
#332=(
LENGTH_UNIT()
NAMED_UNIT(*)
SI_UNIT(.MILLI.,.METRE.)
);
#333=(
LENGTH_UNIT()
NAMED_UNIT(*)
SI_UNIT(.CENTI.,.METRE.)
);
#334=(
NAMED_UNIT(*)
PLANE_ANGLE_UNIT()
SI_UNIT($,.RADIAN.)
);
#335=(
NAMED_UNIT(*)
SI_UNIT($,.STERADIAN.)
SOLID_ANGLE_UNIT()
);
#336=SHAPE_DEFINITION_REPRESENTATION(#337,#338);
#337=PRODUCT_DEFINITION_SHAPE('',$,#340);
#338=SHAPE_REPRESENTATION('',(#220),#330);
#339=DESIGN_CONTEXT('part definition',#344,'design');
#340=PRODUCT_DEFINITION('Ex Liro Holz Einlage H95 900 mit DL',
'3D_200-2696-XX 106175',#341,#339);
#341=PRODUCT_DEFINITION_FORMATION('',$,#346);
#342=PRODUCT_RELATED_PRODUCT_CATEGORY('3D_200-2696-XX 106175',
'3D_200-2696-XX 106175',(#346));
#343=APPLICATION_PROTOCOL_DEFINITION('international standard',
'ap203_configuration_controlled_3d_design_of_mechanical_parts_and_asse
mblies_mim_lf',2004,#344);
#344=APPLICATION_CONTEXT(
'Configuration Controlled 3D Design of Mechanical Parts and Assemblies');
#345=MECHANICAL_CONTEXT('part definition',#344,'mechanical');
#346=PRODUCT('Ex Liro Holz Einlage H95 900 mit DL',
'3D_200-2696-XX 106175',$,(#345));
#347=SURFACE_STYLE_RENDERING_WITH_PROPERTIES($,#362,(#348));
#348=SURFACE_STYLE_TRANSPARENT(0.);
#349=PRESENTATION_STYLE_ASSIGNMENT((#351));
#350=PRESENTATION_STYLE_ASSIGNMENT((#352));
#351=SURFACE_STYLE_USAGE(.BOTH.,#353);
#352=SURFACE_STYLE_USAGE(.BOTH.,#354);
#353=SURFACE_SIDE_STYLE('',(#355));
#354=SURFACE_SIDE_STYLE('',(#356,#347));
#355=SURFACE_STYLE_FILL_AREA(#357);
#356=SURFACE_STYLE_FILL_AREA(#358);
#357=FILL_AREA_STYLE('',(#359));
#358=FILL_AREA_STYLE('',(#360));
#359=FILL_AREA_STYLE_COLOUR('',#361);
#360=FILL_AREA_STYLE_COLOUR('',#362);
#361=COLOUR_RGB('',0.466666666666667,0.305882352941176,0.172549019607843);
#362=COLOUR_RGB('',0.580392156862745,0.650980392156863,0.72156862745098);
ENDSEC;
END-ISO-10303-21;
